0
SECTION
2
HEADER
9
$ANGDIR
70
1
9
$AUNITS
70
0
9
$PROJECTNAME
1
untitled
9
$TDCREATE
40
2459577.68880722
9
$INSUNITS
70
4
0
ENDSEC
0
SECTION
2
ENTITIES
0
POLYLINE
66
1
8
outline
10
0.0
20
0.0
30
0.0
70
1
0
VERTEX
8
0
10
0.165009375
20
-0.14973125
30
0
0
VERTEX
8
0
10
164.420009375
20
-0.14973125
30
0
0
VERTEX
8
0
10
164.420009375
20
65.44026875
30
0
0
VERTEX
8
0
10
0.165009375
20
65.44026875
30
0
0
VERTEX
8
0
10
0.165009375
20
-0.14973125
30
0
0
SEQEND
0
POLYLINE
66
1
8
holes
10
0.0
20
0.0
30
0.0
70
1
0
VERTEX
8
0
10
110.825
20
48.283609375000005
30
0
0
VERTEX
8
0
10
110.83238750000001
20
48.33025
30
0
0
VERTEX
8
0
10
110.846978125
20
48.375159375
30
0
0
VERTEX
8
0
10
110.86841562500001
20
48.417234375
30
0
0
VERTEX
8
0
10
110.89617187500001
20
48.4554375
30
0
0
VERTEX
8
0
10
110.9295625
20
48.488828125000005
30
0
0
VERTEX
8
0
10
110.967765625
20
48.516584375
30
0
0
VERTEX
8
0
10
111.00984062500001
20
48.538021875000005
30
0
0
VERTEX
8
0
10
111.05475
20
48.5526125
30
0
0
VERTEX
8
0
10
111.10139062500001
20
48.56
30
0
0
VERTEX
8
0
10
111.148609375
20
48.56
30
0
0
VERTEX
8
0
10
111.19525
20
48.5526125
30
0
0
VERTEX
8
0
10
111.240159375
20
48.538021875000005
30
0
0
VERTEX
8
0
10
111.282234375
20
48.516584375
30
0
0
VERTEX
8
0
10
111.32043750000001
20
48.488828125000005
30
0
0
VERTEX
8
0
10
111.353828125
20
48.4554375
30
0
0
VERTEX
8
0
10
111.381584375
20
48.417234375
30
0
0
VERTEX
8
0
10
111.40302187500001
20
48.375159375
30
0
0
VERTEX
8
0
10
111.4176125
20
48.33025
30
0
0
VERTEX
8
0
10
111.42500000000001
20
48.283609375000005
30
0
0
VERTEX
8
0
10
111.42500000000001
20
48.236390625000006
30
0
0
VERTEX
8
0
10
111.4176125
20
48.189750000000004
30
0
0
VERTEX
8
0
10
111.40302187500001
20
48.144840625
30
0
0
VERTEX
8
0
10
111.381584375
20
48.102765625
30
0
0
VERTEX
8
0
10
111.353828125
20
48.0645625
30
0
0
VERTEX
8
0
10
111.32043750000001
20
48.031171875000005
30
0
0
VERTEX
8
0
10
111.282234375
20
48.003415625
30
0
0
VERTEX
8
0
10
111.240159375
20
47.981978125000005
30
0
0
VERTEX
8
0
10
111.19525
20
47.9673875
30
0
0
VERTEX
8
0
10
111.148609375
20
47.96
30
0
0
VERTEX
8
0
10
111.10139062500001
20
47.96
30
0
0
VERTEX
8
0
10
111.05475
20
47.9673875
30
0
0
VERTEX
8
0
10
111.00984062500001
20
47.981978125000005
30
0
0
VERTEX
8
0
10
110.967765625
20
48.003415625
30
0
0
VERTEX
8
0
10
110.9295625
20
48.031171875000005
30
0
0
VERTEX
8
0
10
110.89617187500001
20
48.0645625
30
0
0
VERTEX
8
0
10
110.86841562500001
20
48.102765625
30
0
0
VERTEX
8
0
10
110.846978125
20
48.144840625
30
0
0
VERTEX
8
0
10
110.83238750000001
20
48.189750000000004
30
0
0
VERTEX
8
0
10
110.825
20
48.236390625000006
30
0
0
VERTEX
8
0
10
110.825
20
48.283609375000005
30
0
0
SEQEND
0
POLYLINE
66
1
8
holes
10
0.0
20
0.0
30
0.0
70
1
0
VERTEX
8
0
10
98.125
20
48.283609375000005
30
0
0
VERTEX
8
0
10
98.13238750000001
20
48.33025
30
0
0
VERTEX
8
0
10
98.146978125
20
48.375159375
30
0
0
VERTEX
8
0
10
98.16841562500001
20
48.417234375
30
0
0
VERTEX
8
0
10
98.196171875
20
48.4554375
30
0
0
VERTEX
8
0
10
98.2295625
20
48.488828125000005
30
0
0
VERTEX
8
0
10
98.26776562500001
20
48.516584375
30
0
0
VERTEX
8
0
10
98.309840625
20
48.538021875000005
30
0
0
VERTEX
8
0
10
98.35475000000001
20
48.5526125
30
0
0
VERTEX
8
0
10
98.401390625
20
48.56
30
0
0
VERTEX
8
0
10
98.448609375
20
48.56
30
0
0
VERTEX
8
0
10
98.49525
20
48.5526125
30
0
0
VERTEX
8
0
10
98.540159375
20
48.538021875000005
30
0
0
VERTEX
8
0
10
98.582234375
20
48.516584375
30
0
0
VERTEX
8
0
10
98.62043750000001
20
48.488828125000005
30
0
0
VERTEX
8
0
10
98.653828125
20
48.4554375
30
0
0
VERTEX
8
0
10
98.681584375
20
48.417234375
30
0
0
VERTEX
8
0
10
98.703021875
20
48.375159375
30
0
0
VERTEX
8
0
10
98.7176125
20
48.33025
30
0
0
VERTEX
8
0
10
98.72500000000001
20
48.283609375000005
30
0
0
VERTEX
8
0
10
98.72500000000001
20
48.236390625000006
30
0
0
VERTEX
8
0
10
98.7176125
20
48.189750000000004
30
0
0
VERTEX
8
0
10
98.703021875
20
48.144840625
30
0
0
VERTEX
8
0
10
98.681584375
20
48.102765625
30
0
0
VERTEX
8
0
10
98.653828125
20
48.0645625
30
0
0
VERTEX
8
0
10
98.62043750000001
20
48.031171875000005
30
0
0
VERTEX
8
0
10
98.582234375
20
48.003415625
30
0
0
VERTEX
8
0
10
98.540159375
20
47.981978125000005
30
0
0
VERTEX
8
0
10
98.49525
20
47.9673875
30
0
0
VERTEX
8
0
10
98.448609375
20
47.96
30
0
0
VERTEX
8
0
10
98.401390625
20
47.96
30
0
0
VERTEX
8
0
10
98.35475000000001
20
47.9673875
30
0
0
VERTEX
8
0
10
98.309840625
20
47.981978125000005
30
0
0
VERTEX
8
0
10
98.26776562500001
20
48.003415625
30
0
0
VERTEX
8
0
10
98.2295625
20
48.031171875000005
30
0
0
VERTEX
8
0
10
98.196171875
20
48.0645625
30
0
0
VERTEX
8
0
10
98.16841562500001
20
48.102765625
30
0
0
VERTEX
8
0
10
98.146978125
20
48.144840625
30
0
0
VERTEX
8
0
10
98.13238750000001
20
48.189750000000004
30
0
0
VERTEX
8
0
10
98.125
20
48.236390625000006
30
0
0
VERTEX
8
0
10
98.125
20
48.283609375000005
30
0
0
SEQEND
0
POLYLINE
66
1
8
holes
10
0.0
20
0.0
30
0.0
70
1
0
VERTEX
8
0
10
110.57100000000001
20
63.269609375
30
0
0
VERTEX
8
0
10
110.5783875
20
63.316250000000004
30
0
0
VERTEX
8
0
10
110.592978125
20
63.361159375
30
0
0
VERTEX
8
0
10
110.614415625
20
63.403234375000004
30
0
0
VERTEX
8
0
10
110.642171875
20
63.441437500000006
30
0
0
VERTEX
8
0
10
110.67556250000001
20
63.474828125
30
0
0
VERTEX
8
0
10
110.71376562500001
20
63.502584375000005
30
0
0
VERTEX
8
0
10
110.755840625
20
63.524021875
30
0
0
VERTEX
8
0
10
110.80075000000001
20
63.538612500000006
30
0
0
VERTEX
8
0
10
110.847390625
20
63.54600000000001
30
0
0
VERTEX
8
0
10
110.894609375
20
63.54600000000001
30
0
0
VERTEX
8
0
10
110.94125000000001
20
63.538612500000006
30
0
0
VERTEX
8
0
10
110.986159375
20
63.524021875
30
0
0
VERTEX
8
0
10
111.02823437500001
20
63.502584375000005
30
0
0
VERTEX
8
0
10
111.0664375
20
63.474828125
30
0
0
VERTEX
8
0
10
111.099828125
20
63.441437500000006
30
0
0
VERTEX
8
0
10
111.12758437500001
20
63.403234375000004
30
0
0
VERTEX
8
0
10
111.149021875
20
63.361159375
30
0
0
VERTEX
8
0
10
111.1636125
20
63.316250000000004
30
0
0
VERTEX
8
0
10
111.171
20
63.269609375
30
0
0
VERTEX
8
0
10
111.171
20
63.222390625
30
0
0
VERTEX
8
0
10
111.1636125
20
63.17575
30
0
0
VERTEX
8
0
10
111.149021875
20
63.130840625000005
30
0
0
VERTEX
8
0
10
111.12758437500001
20
63.088765625
30
0
0
VERTEX
8
0
10
111.099828125
20
63.050562500000005
30
0
0
VERTEX
8
0
10
111.0664375
20
63.017171875
30
0
0
VERTEX
8
0
10
111.02823437500001
20
62.98941562500001
30
0
0
VERTEX
8
0
10
110.986159375
20
62.967978125
30
0
0
VERTEX
8
0
10
110.94125000000001
20
62.953387500000005
30
0
0
VERTEX
8
0
10
110.894609375
20
62.946000000000005
30
0
0
VERTEX
8
0
10
110.847390625
20
62.946000000000005
30
0
0
VERTEX
8
0
10
110.80075000000001
20
62.953387500000005
30
0
0
VERTEX
8
0
10
110.755840625
20
62.967978125
30
0
0
VERTEX
8
0
10
110.71376562500001
20
62.98941562500001
30
0
0
VERTEX
8
0
10
110.67556250000001
20
63.017171875
30
0
0
VERTEX
8
0
10
110.642171875
20
63.050562500000005
30
0
0
VERTEX
8
0
10
110.614415625
20
63.088765625
30
0
0
VERTEX
8
0
10
110.592978125
20
63.130840625000005
30
0
0
VERTEX
8
0
10
110.5783875
20
63.17575
30
0
0
VERTEX
8
0
10
110.57100000000001
20
63.222390625
30
0
0
VERTEX
8
0
10
110.57100000000001
20
63.269609375
30
0
0
SEQEND
0
POLYLINE
66
1
8
holes
10
0.0
20
0.0
30
0.0
70
1
0
VERTEX
8
0
10
98.379
20
63.015609375000004
30
0
0
VERTEX
8
0
10
98.3863875
20
63.062250000000006
30
0
0
VERTEX
8
0
10
98.40097812500001
20
63.107159375
30
0
0
VERTEX
8
0
10
98.422415625
20
63.149234375000006
30
0
0
VERTEX
8
0
10
98.45017187500001
20
63.1874375
30
0
0
VERTEX
8
0
10
98.4835625
20
63.220828125000004
30
0
0
VERTEX
8
0
10
98.521765625
20
63.248584375
30
0
0
VERTEX
8
0
10
98.56384062500001
20
63.270021875000005
30
0
0
VERTEX
8
0
10
98.60875
20
63.2846125
30
0
0
VERTEX
8
0
10
98.65539062500001
20
63.292
30
0
0
VERTEX
8
0
10
98.70260937500001
20
63.292
30
0
0
VERTEX
8
0
10
98.74925
20
63.2846125
30
0
0
VERTEX
8
0
10
98.794159375
20
63.270021875000005
30
0
0
VERTEX
8
0
10
98.836234375
20
63.248584375
30
0
0
VERTEX
8
0
10
98.8744375
20
63.220828125000004
30
0
0
VERTEX
8
0
10
98.90782812500001
20
63.1874375
30
0
0
VERTEX
8
0
10
98.935584375
20
63.149234375000006
30
0
0
VERTEX
8
0
10
98.95702187500001
20
63.107159375
30
0
0
VERTEX
8
0
10
98.9716125
20
63.062250000000006
30
0
0
VERTEX
8
0
10
98.979
20
63.015609375000004
30
0
0
VERTEX
8
0
10
98.979
20
62.968390625000005
30
0
0
VERTEX
8
0
10
98.9716125
20
62.92175
30
0
0
VERTEX
8
0
10
98.95702187500001
20
62.876840625
30
0
0
VERTEX
8
0
10
98.935584375
20
62.834765625
30
0
0
VERTEX
8
0
10
98.90782812500001
20
62.7965625
30
0
0
VERTEX
8
0
10
98.8744375
20
62.763171875000005
30
0
0
VERTEX
8
0
10
98.836234375
20
62.735415625
30
0
0
VERTEX
8
0
10
98.794159375
20
62.713978125000004
30
0
0
VERTEX
8
0
10
98.74925
20
62.6993875
30
0
0
VERTEX
8
0
10
98.70260937500001
20
62.692
30
0
0
VERTEX
8
0
10
98.65539062500001
20
62.692
30
0
0
VERTEX
8
0
10
98.60875
20
62.6993875
30
0
0
VERTEX
8
0
10
98.56384062500001
20
62.713978125000004
30
0
0
VERTEX
8
0
10
98.521765625
20
62.735415625
30
0
0
VERTEX
8
0
10
98.4835625
20
62.763171875000005
30
0
0
VERTEX
8
0
10
98.45017187500001
20
62.7965625
30
0
0
VERTEX
8
0
10
98.422415625
20
62.834765625
30
0
0
VERTEX
8
0
10
98.40097812500001
20
62.876840625
30
0
0
VERTEX
8
0
10
98.3863875
20
62.92175
30
0
0
VERTEX
8
0
10
98.379
20
62.968390625000005
30
0
0
VERTEX
8
0
10
98.379
20
63.015609375000004
30
0
0
SEQEND
0
POLYLINE
66
1
8
1_copper
10
0.0
20
0.0
30
0.0
70
1
0
VERTEX
8
0
10
86.46375
20
37.647737500000005
30
0
42
0.7792291166523903
0
VERTEX
8
0
10
86.783984375
20
39.741546875000004
30
0
0
VERTEX
8
0
10
86.743496875
20
39.757659375
30
0
0
VERTEX
8
0
10
76.58349687500001
20
43.567659375000005
30
0
0
VERTEX
8
0
10
76.575075
20
43.570459375
30
0
0
VERTEX
8
0
10
76.5668125
20
43.5737625
30
0
42
0.07579537416741726
0
VERTEX
8
0
10
76.24356875000001
20
43.636331250000005
30
0
0
VERTEX
8
0
10
76.2
20
43.6372
30
0
0
VERTEX
8
0
10
68.58
20
43.6372
30
0
0
VERTEX
8
0
10
68.497453125
20
43.634075
30
0
42
0.9438309218738523
0
VERTEX
8
0
10
68.53643125
20
41.45366875
30
0
0
VERTEX
8
0
10
68.58
20
41.4528
30
0
0
VERTEX
8
0
10
76.00194375000001
20
41.4528
30
0
0
VERTEX
8
0
10
85.97650312500001
20
37.712340625
30
0
0
VERTEX
8
0
10
86.054890625
20
37.68628125
30
0
42
0.07579542861954551
0
VERTEX
8
0
10
86.38127812500001
20
37.64300625
30
0
0
SEQEND
0
POLYLINE
66
1
8
16_copper
10
0.0
20
0.0
30
0.0
70
1
0
VERTEX
8
0
10
77.2033
20
42.129421875000006
30
0
0
VERTEX
8
0
10
77.2033
20
42.960578125000005
30
0
0
VERTEX
8
0
10
76.615578125
20
43.548300000000005
30
0
0
VERTEX
8
0
10
75.784421875
20
43.548300000000005
30
0
0
VERTEX
8
0
10
75.1967
20
42.960578125000005
30
0
0
VERTEX
8
0
10
75.1967
20
42.129421875000006
30
0
0
VERTEX
8
0
10
75.784421875
20
41.5417
30
0
0
VERTEX
8
0
10
76.615578125
20
41.5417
30
0
0
SEQEND
0
POLYLINE
66
1
8
16_copper
10
0.0
20
0.0
30
0.0
70
1
0
VERTEX
8
0
10
69.24040000000001
20
42.27145625
30
0
0
VERTEX
8
0
10
69.24040000000001
20
42.81854375
30
0
0
VERTEX
8
0
10
68.85354375
20
43.205400000000004
30
0
0
VERTEX
8
0
10
68.30645625
20
43.205400000000004
30
0
0
VERTEX
8
0
10
67.9196
20
42.81854375
30
0
0
VERTEX
8
0
10
67.9196
20
42.27145625
30
0
0
VERTEX
8
0
10
68.30645625
20
41.8846
30
0
0
VERTEX
8
0
10
68.85354375
20
41.8846
30
0
0
SEQEND
0
POLYLINE
66
1
8
16_copper
10
0.0
20
0.0
30
0.0
70
1
0
VERTEX
8
0
10
87.36330000000001
20
38.319421875
30
0
0
VERTEX
8
0
10
87.36330000000001
20
39.150578125
30
0
0
VERTEX
8
0
10
86.77557812500001
20
39.7383
30
0
0
VERTEX
8
0
10
85.944421875
20
39.7383
30
0
0
VERTEX
8
0
10
85.3567
20
39.150578125
30
0
0
VERTEX
8
0
10
85.3567
20
38.319421875
30
0
0
VERTEX
8
0
10
85.944421875
20
37.731700000000004
30
0
0
VERTEX
8
0
10
86.77557812500001
20
37.731700000000004
30
0
0
SEQEND
0
POLYLINE
66
1
8
1_copper
10
0.0
20
0.0
30
0.0
70
1
0
VERTEX
8
0
10
40.963837500000004
20
24.241996875
30
0
42
0.9802464692446021
0
VERTEX
8
0
10
39.0677875
20
25.325834375
30
0
0
VERTEX
8
0
10
39.0461625
20
25.288003125
30
0
0
VERTEX
8
0
10
35.2361625
20
18.303003125
30
0
0
VERTEX
8
0
10
35.2348
20
18.300265625
30
0
0
VERTEX
8
0
10
35.233281250000005
20
18.29768125
30
0
42
0.1139658729398398
0
VERTEX
8
0
10
35.103668750000004
20
17.82356875
30
0
0
VERTEX
8
0
10
35.1028
20
17.78
30
0
0
VERTEX
8
0
10
35.1028
20
6.3500000000000005
30
0
0
VERTEX
8
0
10
35.105925
20
6.267453125
30
0
42
0.9438309218738523
0
VERTEX
8
0
10
37.28633125
20
6.30643125
30
0
0
VERTEX
8
0
10
37.2872
20
6.3500000000000005
30
0
0
VERTEX
8
0
10
37.2872
20
17.50149375
30
0
0
SEQEND
0
POLYLINE
66
1
8
16_copper
10
0.0
20
0.0
30
0.0
70
1
0
VERTEX
8
0
10
41.0083
20
24.349421875
30
0
0
VERTEX
8
0
10
41.0083
20
25.180578125
30
0
0
VERTEX
8
0
10
40.420578125
20
25.7683
30
0
0
VERTEX
8
0
10
39.589421875
20
25.7683
30
0
0
VERTEX
8
0
10
39.0017
20
25.180578125
30
0
0
VERTEX
8
0
10
39.0017
20
24.349421875
30
0
0
VERTEX
8
0
10
39.589421875
20
23.7617
30
0
0
VERTEX
8
0
10
40.420578125
20
23.7617
30
0
0
SEQEND
0
POLYLINE
66
1
8
16_copper
10
0.0
20
0.0
30
0.0
70
1
0
VERTEX
8
0
10
37.1983
20
14.189421875
30
0
0
VERTEX
8
0
10
37.1983
20
15.020578125
30
0
0
VERTEX
8
0
10
36.610578125
20
15.608300000000002
30
0
0
VERTEX
8
0
10
35.779421875000004
20
15.608300000000002
30
0
0
VERTEX
8
0
10
35.191700000000004
20
15.020578125
30
0
0
VERTEX
8
0
10
35.191700000000004
20
14.189421875
30
0
0
VERTEX
8
0
10
35.779421875000004
20
13.601700000000001
30
0
0
VERTEX
8
0
10
36.610578125
20
13.601700000000001
30
0
0
SEQEND
0
POLYLINE
66
1
8
16_copper
10
0.0
20
0.0
30
0.0
70
1
0
VERTEX
8
0
10
36.8554
20
6.076456250000001
30
0
0
VERTEX
8
0
10
36.8554
20
6.6235437500000005
30
0
0
VERTEX
8
0
10
36.46854375
20
7.010400000000001
30
0
0
VERTEX
8
0
10
35.92145625
20
7.010400000000001
30
0
0
VERTEX
8
0
10
35.534600000000005
20
6.6235437500000005
30
0
0
VERTEX
8
0
10
35.534600000000005
20
6.076456250000001
30
0
0
VERTEX
8
0
10
35.92145625
20
5.6896
30
0
0
VERTEX
8
0
10
36.46854375
20
5.6896
30
0
0
SEQEND
0
POLYLINE
66
1
8
1_copper
10
0.0
20
0.0
30
0.0
70
1
0
VERTEX
8
0
10
118.84700000000001
20
5.262571875
30
0
42
0.37565218081173074
0
VERTEX
8
0
10
119.83633125
20
6.30643125
30
0
0
VERTEX
8
0
10
119.83720000000001
20
6.3500000000000005
30
0
0
VERTEX
8
0
10
119.83720000000001
20
13.77194375
30
0
0
VERTEX
8
0
10
123.57765937500001
20
23.746503125
30
0
0
VERTEX
8
0
10
123.60371875000001
20
23.824890625000002
30
0
42
0.9438318150801881
0
VERTEX
8
0
10
121.54845312500001
20
24.553984375000002
30
0
0
VERTEX
8
0
10
121.532340625
20
24.513496875
30
0
0
VERTEX
8
0
10
117.722340625
20
14.353496875000001
30
0
0
VERTEX
8
0
10
117.71954062500001
20
14.345075000000001
30
0
0
VERTEX
8
0
10
117.7162375
20
14.3368125
30
0
42
0.07579537416741726
0
VERTEX
8
0
10
117.65366875000001
20
14.013568750000001
30
0
0
VERTEX
8
0
10
117.6528
20
13.97
30
0
0
VERTEX
8
0
10
117.6528
20
6.3500000000000005
30
0
0
VERTEX
8
0
10
117.65592500000001
20
6.267453125
30
0
42
0.39739087445440746
0
VERTEX
8
0
10
118.764521875
20
5.257975
30
0
0
SEQEND
0
POLYLINE
66
1
8
16_copper
10
0.0
20
0.0
30
0.0
70
1
0
VERTEX
8
0
10
123.5583
20
23.714421875000003
30
0
0
VERTEX
8
0
10
123.5583
20
24.545578125000002
30
0
0
VERTEX
8
0
10
122.970578125
20
25.133300000000002
30
0
0
VERTEX
8
0
10
122.13942187500001
20
25.133300000000002
30
0
0
VERTEX
8
0
10
121.55170000000001
20
24.545578125000002
30
0
0
VERTEX
8
0
10
121.55170000000001
20
23.714421875000003
30
0
0
VERTEX
8
0
10
122.13942187500001
20
23.1267
30
0
0
VERTEX
8
0
10
122.970578125
20
23.1267
30
0
0
SEQEND
0
POLYLINE
66
1
8
16_copper
10
0.0
20
0.0
30
0.0
70
1
0
VERTEX
8
0
10
119.7483
20
13.554421875000001
30
0
0
VERTEX
8
0
10
119.7483
20
14.385578125
30
0
0
VERTEX
8
0
10
119.160578125
20
14.9733
30
0
0
VERTEX
8
0
10
118.32942187500001
20
14.9733
30
0
0
VERTEX
8
0
10
117.74170000000001
20
14.385578125
30
0
0
VERTEX
8
0
10
117.74170000000001
20
13.554421875000001
30
0
0
VERTEX
8
0
10
118.32942187500001
20
12.966700000000001
30
0
0
VERTEX
8
0
10
119.160578125
20
12.966700000000001
30
0
0
SEQEND
0
POLYLINE
66
1
8
16_copper
10
0.0
20
0.0
30
0.0
70
1
0
VERTEX
8
0
10
119.4054
20
6.076456250000001
30
0
0
VERTEX
8
0
10
119.4054
20
6.6235437500000005
30
0
0
VERTEX
8
0
10
119.01854375
20
7.010400000000001
30
0
0
VERTEX
8
0
10
118.47145625
20
7.010400000000001
30
0
0
VERTEX
8
0
10
118.08460000000001
20
6.6235437500000005
30
0
0
VERTEX
8
0
10
118.08460000000001
20
6.076456250000001
30
0
0
VERTEX
8
0
10
118.47145625
20
5.6896
30
0
0
VERTEX
8
0
10
119.01854375
20
5.6896
30
0
0
SEQEND
0
POLYLINE
66
1
8
1_copper
10
0.0
20
0.0
30
0.0
70
1
0
VERTEX
8
0
10
163.25491250000002
20
0.8671531250000001
30
0
0
VERTEX
8
0
10
163.25872187500002
20
0.8669562500000001
30
0
42
0.3701874288596992
0
VERTEX
8
0
10
163.40270625
20
1.00355
30
0
0
VERTEX
8
0
10
163.403509375
20
1.019165625
30
0
0
VERTEX
8
0
10
163.403509375
20
64.27136875000001
30
0
0
VERTEX
8
0
10
163.403121875
20
64.275171875
30
0
0
VERTEX
8
0
10
163.40331875
20
64.27898125
30
0
42
0.3701874288596992
0
VERTEX
8
0
10
163.266725
20
64.422965625
30
0
0
VERTEX
8
0
10
163.251109375
20
64.42376875000001
30
0
0
VERTEX
8
0
10
113.817396875
20
64.42376875000001
30
0
0
VERTEX
8
0
10
113.81359375000001
20
64.42338125
30
0
0
VERTEX
8
0
10
113.809784375
20
64.423578125
30
0
42
0.3701874288596992
0
VERTEX
8
0
10
113.6658
20
64.286984375
30
0
0
VERTEX
8
0
10
113.664996875
20
64.27136875000001
30
0
0
VERTEX
8
0
10
113.664996875
20
61.265903125
30
0
0
VERTEX
8
0
10
113.51031875000001
20
60.892478125000004
30
0
0
VERTEX
8
0
10
113.22451875
20
60.606678125
30
0
0
VERTEX
8
0
10
112.85109375
20
60.452000000000005
30
0
0
VERTEX
8
0
10
107.59118125
20
60.452000000000005
30
0
0
VERTEX
8
0
10
107.58043437500001
20
60.450909375
30
0
0
VERTEX
8
0
10
107.56968125
20
60.450475000000004
30
0
42
0.15312548860847394
0
VERTEX
8
0
10
107.487375
20
60.411178125000006
30
0
0
VERTEX
8
0
10
107.482359375
20
60.406009375000004
30
0
0
VERTEX
8
0
10
107.480759375
20
60.4046375
30
0
0
VERTEX
8
0
10
107.479690625
20
60.403256250000005
30
0
0
VERTEX
8
0
10
107.4764875
20
60.39995625
30
0
0
VERTEX
8
0
10
106.336703125
20
59.097346875
30
0
0
VERTEX
8
0
10
106.336325
20
59.096812500000006
30
0
0
VERTEX
8
0
10
106.33586562500001
20
59.096378125
30
0
42
0.15312467584094633
0
VERTEX
8
0
10
106.2998
20
59.012606250000005
30
0
0
VERTEX
8
0
10
106.298996875
20
58.996990625
30
0
0
VERTEX
8
0
10
106.298996875
20
52.8079625
30
0
0
VERTEX
8
0
10
106.299575
20
52.802265625000004
30
0
0
VERTEX
8
0
10
106.299425
20
52.796546875000004
30
0
42
0.1531278540915039
0
VERTEX
8
0
10
106.33315937500001
20
52.71180625
30
0
0
VERTEX
8
0
10
106.34363437500001
20
52.7002
30
0
0
VERTEX
8
0
10
107.69120000000001
20
51.352634375
30
0
0
VERTEX
8
0
10
107.694921875
20
51.3496
30
0
0
VERTEX
8
0
10
107.69640625000001
20
51.348034375000005
30
0
0
VERTEX
8
0
10
107.69688437500001
20
51.3477
30
0
0
VERTEX
8
0
10
107.69957500000001
20
51.344865625000004
30
0
42
0.15312467584094633
0
VERTEX
8
0
10
107.783346875
20
51.308800000000005
30
0
0
VERTEX
8
0
10
107.7989625
20
51.307996875
30
0
0
VERTEX
8
0
10
112.85109375
20
51.307996875
30
0
0
VERTEX
8
0
10
113.22451875
20
51.153318750000004
30
0
0
VERTEX
8
0
10
113.51031875000001
20
50.86751875
30
0
0
VERTEX
8
0
10
113.664996875
20
50.494093750000005
30
0
0
VERTEX
8
0
10
113.664996875
20
46.533903125
30
0
0
VERTEX
8
0
10
113.51031875000001
20
46.160478125000004
30
0
0
VERTEX
8
0
10
113.22451875
20
45.874678125
30
0
0
VERTEX
8
0
10
112.85109375
20
45.72
30
0
0
VERTEX
8
0
10
96.698903125
20
45.72
30
0
0
VERTEX
8
0
10
96.325478125
20
45.874678125
30
0
0
VERTEX
8
0
10
96.03967812500001
20
46.160478125000004
30
0
0
VERTEX
8
0
10
95.885
20
46.533903125
30
0
0
VERTEX
8
0
10
95.885
20
50.494093750000005
30
0
0
VERTEX
8
0
10
96.03967812500001
20
50.86751875
30
0
0
VERTEX
8
0
10
96.325478125
20
51.153318750000004
30
0
0
VERTEX
8
0
10
96.698903125
20
51.307996875
30
0
0
VERTEX
8
0
10
101.958815625
20
51.307996875
30
0
0
VERTEX
8
0
10
101.96956250000001
20
51.309087500000004
30
0
0
VERTEX
8
0
10
101.980315625
20
51.309521875
30
0
42
0.15312548860847394
0
VERTEX
8
0
10
102.062621875
20
51.34881875
30
0
0
VERTEX
8
0
10
102.067628125
20
51.353978125000005
30
0
0
VERTEX
8
0
10
102.0692375
20
51.355359375
30
0
0
VERTEX
8
0
10
102.07030625
20
51.356740625
30
0
0
VERTEX
8
0
10
102.073509375
20
51.360040625
30
0
0
VERTEX
8
0
10
103.21329375
20
52.66265
30
0
0
VERTEX
8
0
10
103.213671875
20
52.663184375
30
0
0
VERTEX
8
0
10
103.21413125000001
20
52.663618750000005
30
0
42
0.15312467584094633
0
VERTEX
8
0
10
103.250196875
20
52.747390625
30
0
0
VERTEX
8
0
10
103.251
20
52.763006250000004
30
0
0
VERTEX
8
0
10
103.251
20
58.952034375000004
30
0
0
VERTEX
8
0
10
103.250421875
20
58.95773125
30
0
0
VERTEX
8
0
10
103.250571875
20
58.96345
30
0
42
0.1531278540915039
0
VERTEX
8
0
10
103.21683750000001
20
59.048190625000004
30
0
0
VERTEX
8
0
10
103.20636250000001
20
59.059796875
30
0
0
VERTEX
8
0
10
101.85879375
20
60.407362500000005
30
0
0
VERTEX
8
0
10
101.85435625000001
20
60.410981250000006
30
0
0
VERTEX
8
0
10
101.85041875
20
60.41513125
30
0
42
0.15312467584094633
0
VERTEX
8
0
10
101.766646875
20
60.451196875
30
0
0
VERTEX
8
0
10
101.75103125000001
20
60.452000000000005
30
0
0
VERTEX
8
0
10
96.698903125
20
60.452000000000005
30
0
0
VERTEX
8
0
10
96.325478125
20
60.606678125
30
0
0
VERTEX
8
0
10
96.03967812500001
20
60.892478125000004
30
0
0
VERTEX
8
0
10
95.885
20
61.265903125
30
0
0
VERTEX
8
0
10
95.885
20
64.27136875000001
30
0
0
VERTEX
8
0
10
95.8846125
20
64.275171875
30
0
0
VERTEX
8
0
10
95.884809375
20
64.27898125
30
0
42
0.3701874288596992
0
VERTEX
8
0
10
95.748215625
20
64.422965625
30
0
0
VERTEX
8
0
10
95.7326
20
64.42376875000001
30
0
0
VERTEX
8
0
10
35.268915625
20
64.42376875000001
30
0
0
VERTEX
8
0
10
35.267959375000004
20
64.423671875
30
0
0
VERTEX
8
0
10
35.267009375
20
64.42375625
30
0
42
0.7736108498856271
0
VERTEX
8
0
10
35.196478125
20
64.13728437500001
30
0
0
VERTEX
8
0
10
35.210596875
20
64.13056875000001
30
0
0
VERTEX
8
0
10
35.4842
20
64.017240625
30
0
0
VERTEX
8
0
10
35.79365
20
63.7077875
30
0
0
VERTEX
8
0
10
35.798812500000004
20
63.703578125
30
0
0
VERTEX
8
0
10
35.803478125000005
20
63.69878125
30
0
42
0.05068874944913502
0
VERTEX
8
0
10
35.828975
20
63.681465625
30
0
0
VERTEX
8
0
10
35.84309375
20
63.67475
30
0
0
VERTEX
8
0
10
35.900006250000004
20
63.651178125
30
0
0
VERTEX
8
0
10
36.371578125
20
63.179606250000006
30
0
0
VERTEX
8
0
10
36.626796875000004
20
62.56345625
30
0
0
VERTEX
8
0
10
36.626796875000004
20
61.896540625
30
0
0
VERTEX
8
0
10
36.371578125
20
61.280390625
30
0
0
VERTEX
8
0
10
35.900006250000004
20
60.80881875
30
0
0
VERTEX
8
0
10
35.84309375
20
60.785246875000006
30
0
42
0.07264798376212163
0
VERTEX
8
0
10
35.80525625
20
60.762684375000006
30
0
0
VERTEX
8
0
10
35.79365
20
60.752209375
30
0
0
VERTEX
8
0
10
35.4842
20
60.44275625
30
0
0
VERTEX
8
0
10
34.70934375
20
60.1218
30
0
0
VERTEX
8
0
10
26.88565625
20
60.1218
30
0
0
VERTEX
8
0
10
26.883000000000003
20
60.1229
30
0
42
0.07264167093094019
0
VERTEX
8
0
10
26.84029375
20
60.133696875000005
30
0
0
VERTEX
8
0
10
26.824678125000002
20
60.1345
30
0
0
VERTEX
8
0
10
26.437015625
20
60.1345
30
0
0
VERTEX
8
0
10
26.1629
20
60.40861875
30
0
0
VERTEX
8
0
10
26.157740625000002
20
60.412825000000005
30
0
0
VERTEX
8
0
10
26.153068750000003
20
60.417628125
30
0
42
0.04661330714066412
0
VERTEX
8
0
10
26.127568750000002
20
60.43494375
30
0
0
VERTEX
8
0
10
26.11345
20
60.441659375
30
0
0
VERTEX
8
0
10
26.110793750000003
20
60.442759375
30
0
0
VERTEX
8
0
10
25.517759375
20
61.03579375
30
0
0
VERTEX
8
0
10
25.516659375
20
61.038450000000005
30
0
42
0.07265947802271164
0
VERTEX
8
0
10
25.49409375
20
61.076293750000005
30
0
0
VERTEX
8
0
10
25.48361875
20
61.087900000000005
30
0
0
VERTEX
8
0
10
25.209500000000002
20
61.362015625000005
30
0
0
VERTEX
8
0
10
25.209500000000002
20
61.749678125
30
0
0
VERTEX
8
0
10
25.208825
20
61.7563125
30
0
0
VERTEX
8
0
10
25.208918750000002
20
61.76299375
30
0
42
0.046613309945572876
0
VERTEX
8
0
10
25.203134375
20
61.79326875
30
0
0
VERTEX
8
0
10
25.1979
20
61.808
30
0
0
VERTEX
8
0
10
25.1968
20
61.81065625
30
0
0
VERTEX
8
0
10
25.1968
20
62.649340625
30
0
0
VERTEX
8
0
10
25.1979
20
62.651996875
30
0
42
0.07264167093094019
0
VERTEX
8
0
10
25.208696875
20
62.694703125000004
30
0
0
VERTEX
8
0
10
25.209500000000002
20
62.710318750000006
30
0
0
VERTEX
8
0
10
25.209500000000002
20
63.097981250000004
30
0
0
VERTEX
8
0
10
25.48361875
20
63.372096875000004
30
0
0
VERTEX
8
0
10
25.487825
20
63.37725625
30
0
0
VERTEX
8
0
10
25.492628125
20
63.381928125
30
0
42
0.04661330714066412
0
VERTEX
8
0
10
25.50994375
20
63.407428125
30
0
0
VERTEX
8
0
10
25.516659375
20
63.421546875000004
30
0
0
VERTEX
8
0
10
25.517759375
20
63.424203125000005
30
0
0
VERTEX
8
0
10
26.110793750000003
20
64.01723750000001
30
0
0
VERTEX
8
0
10
26.11345
20
64.0183375
30
0
42
0.07265947802271164
0
VERTEX
8
0
10
26.15129375
20
64.040903125
30
0
0
VERTEX
8
0
10
26.1629
20
64.051378125
30
0
0
VERTEX
8
0
10
26.275128125000002
20
64.16360625
30
0
0
VERTEX
8
0
10
26.276331250000002
20
64.165084375
30
0
0
VERTEX
8
0
10
26.277787500000002
20
64.16633125
30
0
42
0.62297385326033
0
VERTEX
8
0
10
26.18298125
20
64.422965625
30
0
0
VERTEX
8
0
10
26.167365625000002
20
64.42376875000001
30
0
0
VERTEX
8
0
10
1.33390625
20
64.42376875000001
30
0
0
VERTEX
8
0
10
1.3301031250000002
20
64.42338125
30
0
0
VERTEX
8
0
10
1.32629375
20
64.423578125
30
0
42
0.3701874288596992
0
VERTEX
8
0
10
1.182309375
20
64.286984375
30
0
0
VERTEX
8
0
10
1.18150625
20
64.27136875000001
30
0
0
VERTEX
8
0
10
1.18150625
20
1.019165625
30
0
0
VERTEX
8
0
10
1.18189375
20
1.0153625
30
0
0
VERTEX
8
0
10
1.181696875
20
1.011553125
30
0
42
0.3701874288596992
0
VERTEX
8
0
10
1.3182906250000002
20
0.86756875
30
0
0
VERTEX
8
0
10
1.33390625
20
0.8667656250000001
30
0
0
VERTEX
8
0
10
163.251109375
20
0.8667656250000001
30
0
0
SEQEND
0
POLYLINE
66
1
8
1_copper
10
0.0
20
0.0
30
0.0
70
1
0
VERTEX
8
0
10
55.078434375
20
57.70020625
30
0
42
0.4289325523692265
0
VERTEX
8
0
10
54.89889375
20
57.82880625
30
0
0
VERTEX
8
0
10
54.891537500000005
20
57.827003125000005
30
0
0
VERTEX
8
0
10
54.889415625000005
20
57.82668125
30
0
0
VERTEX
8
0
10
54.887840625
20
57.826100000000004
30
0
0
VERTEX
8
0
10
54.883709375
20
57.8250875
30
0
0
VERTEX
8
0
10
49.734125000000006
20
56.280209375000005
30
0
0
VERTEX
8
0
10
48.899728125
20
56.364975
30
0
0
VERTEX
8
0
10
48.161275
20
56.762603125000005
30
0
0
VERTEX
8
0
10
48.017728125000005
20
56.93861875
30
0
0
VERTEX
8
0
10
48.00763125
20
56.9487125
30
0
0
VERTEX
8
0
10
47.997559375
20
56.95906875
30
0
42
0.027013427904453317
0
VERTEX
8
0
10
47.983965625
20
56.9683
30
0
0
VERTEX
8
0
10
47.972059375
20
56.976384375
30
0
0
VERTEX
8
0
10
47.970768750000005
20
56.977000000000004
30
0
0
VERTEX
8
0
10
47.970196875
20
56.977375
30
0
0
VERTEX
8
0
10
47.968818750000004
20
56.977925000000006
30
0
0
VERTEX
8
0
10
47.957940625
20
56.9831
30
0
0
VERTEX
8
0
10
47.919990625000004
20
56.998818750000005
30
0
0
VERTEX
8
0
10
47.44841875
20
57.470390625
30
0
0
VERTEX
8
0
10
47.193200000000004
20
58.086540625000005
30
0
0
VERTEX
8
0
10
47.193200000000004
20
58.75345625
30
0
0
VERTEX
8
0
10
47.44841875
20
59.369606250000004
30
0
0
VERTEX
8
0
10
47.919990625000004
20
59.841178125000006
30
0
0
VERTEX
8
0
10
47.9337375
20
59.846871875000005
30
0
42
0.042467306344352564
0
VERTEX
8
0
10
47.959131250000006
20
59.860321875000004
30
0
0
VERTEX
8
0
10
47.960278125
20
59.861162500000006
30
0
0
VERTEX
8
0
10
47.960875
20
59.861484375
30
0
0
VERTEX
8
0
10
47.96200625
20
59.86243125
30
0
0
VERTEX
8
0
10
47.9717375
20
59.869568750000006
30
0
0
VERTEX
8
0
10
48.52255
20
60.318790625000005
30
0
0
VERTEX
8
0
10
55.164303125
20
62.311315625000006
30
0
0
VERTEX
8
0
10
55.16431875
20
62.311318750000005
30
0
0
VERTEX
8
0
10
55.164346875
20
62.311328125
30
0
42
0.0005877800338145808
0
VERTEX
8
0
10
55.164684375
20
62.31145
30
0
0
VERTEX
8
0
10
55.179053125
20
62.316553125000006
30
0
0
VERTEX
8
0
10
55.460653125
20
62.433196875
30
0
0
VERTEX
8
0
10
55.548212500000005
20
62.433196875
30
0
42
0.04724154708877855
0
VERTEX
8
0
10
55.57681875
20
62.43590625
30
0
0
VERTEX
8
0
10
55.578193750000004
20
62.43624375
30
0
0
VERTEX
8
0
10
55.578878125
20
62.4363125
30
0
0
VERTEX
8
0
10
55.580303125
20
62.436759375
30
0
0
VERTEX
8
0
10
55.592006250000004
20
62.439625
30
0
0
VERTEX
8
0
10
55.675875000000005
20
62.464784375
30
0
0
VERTEX
8
0
10
55.97913125
20
62.433978125
30
0
0
VERTEX
8
0
10
55.979343750000005
20
62.433978125
30
0
0
VERTEX
8
0
10
55.994534375
20
62.433196875
30
0
0
VERTEX
8
0
10
71.53934375
20
62.433196875
30
0
0
VERTEX
8
0
10
72.3142
20
62.112240625000005
30
0
0
VERTEX
8
0
10
72.907240625
20
61.519200000000005
30
0
0
VERTEX
8
0
10
73.22819687500001
20
60.744343750000006
30
0
0
VERTEX
8
0
10
73.22819687500001
20
59.905653125
30
0
0
VERTEX
8
0
10
72.907240625
20
59.130796875
30
0
0
VERTEX
8
0
10
72.3142
20
58.53775625
30
0
0
VERTEX
8
0
10
71.53934375
20
58.216800000000006
30
0
0
VERTEX
8
0
10
56.832496875000004
20
58.216800000000006
30
0
0
VERTEX
8
0
10
56.82869375
20
58.216412500000004
30
0
0
VERTEX
8
0
10
56.824884375
20
58.216609375000004
30
0
42
0.3701874288596992
0
VERTEX
8
0
10
56.6809
20
58.080015625
30
0
0
VERTEX
8
0
10
56.6801
20
58.064459375000006
30
0
0
VERTEX
8
0
10
56.6801
20
58.116409375
30
0
0
VERTEX
8
0
10
56.211409375
20
58.585100000000004
30
0
0
VERTEX
8
0
10
55.548590625
20
58.585100000000004
30
0
0
VERTEX
8
0
10
55.0799
20
58.116409375
30
0
0
VERTEX
8
0
10
55.0799
20
57.679115625
30
0
0
VERTEX
8
0
10
55.07883125
20
57.689634375000004
30
0
0
SEQEND
0
POLYLINE
66
1
8
1_copper
10
0.0
20
0.0
30
0.0
70
1
0
VERTEX
8
0
10
156.59734375000002
20
59.442343750000006
30
0
0
VERTEX
8
0
10
156.59734375000002
20
62.348934375000006
30
0
0
VERTEX
8
0
10
156.7664375
20
62.33228125
30
0
0
VERTEX
8
0
10
157.0773
20
62.270446875000005
30
0
0
VERTEX
8
0
10
157.380590625
20
62.17844375
30
0
0
VERTEX
8
0
10
157.67341562500002
20
62.057153125000006
30
0
0
VERTEX
8
0
10
157.952953125
20
61.9077375
30
0
0
VERTEX
8
0
10
158.216475
20
61.731659375
30
0
0
VERTEX
8
0
10
158.461478125
20
61.5305875
30
0
0
VERTEX
8
0
10
158.6855875
20
61.306478125000005
30
0
0
VERTEX
8
0
10
158.886659375
20
61.061475
30
0
0
VERTEX
8
0
10
159.0627375
20
60.797953125
30
0
0
VERTEX
8
0
10
159.21215312500001
20
60.518415625
30
0
0
VERTEX
8
0
10
159.33344375000001
20
60.225590625
30
0
0
VERTEX
8
0
10
159.425446875
20
59.9223
30
0
0
VERTEX
8
0
10
159.48728125
20
59.6114375
30
0
0
VERTEX
8
0
10
159.503934375
20
59.442343750000006
30
0
0
SEQEND
0
POLYLINE
66
1
8
1_copper
10
0.0
20
0.0
30
0.0
70
1
0
VERTEX
8
0
10
138.63954375
20
59.442343750000006
30
0
0
VERTEX
8
0
10
138.63954375
20
62.348934375000006
30
0
0
VERTEX
8
0
10
138.8086375
20
62.33228125
30
0
0
VERTEX
8
0
10
139.11950000000002
20
62.270446875000005
30
0
0
VERTEX
8
0
10
139.422790625
20
62.17844375
30
0
0
VERTEX
8
0
10
139.715615625
20
62.057153125000006
30
0
0
VERTEX
8
0
10
139.995153125
20
61.9077375
30
0
0
VERTEX
8
0
10
140.258675
20
61.731659375
30
0
0
VERTEX
8
0
10
140.503678125
20
61.5305875
30
0
0
VERTEX
8
0
10
140.7277875
20
61.306478125000005
30
0
0
VERTEX
8
0
10
140.928859375
20
61.061475
30
0
0
VERTEX
8
0
10
141.1049375
20
60.797953125
30
0
0
VERTEX
8
0
10
141.254353125
20
60.518415625
30
0
0
VERTEX
8
0
10
141.37564375
20
60.225590625
30
0
0
VERTEX
8
0
10
141.467646875
20
59.9223
30
0
0
VERTEX
8
0
10
141.52948125
20
59.6114375
30
0
0
VERTEX
8
0
10
141.546134375
20
59.442343750000006
30
0
0
SEQEND
0
POLYLINE
66
1
8
1_copper
10
0.0
20
0.0
30
0.0
70
1
0
VERTEX
8
0
10
135.1233625
20
59.442343750000006
30
0
0
VERTEX
8
0
10
135.14001562500002
20
59.6114375
30
0
0
VERTEX
8
0
10
135.20185
20
59.9223
30
0
0
VERTEX
8
0
10
135.293853125
20
60.225590625
30
0
0
VERTEX
8
0
10
135.41514375
20
60.518415625
30
0
0
VERTEX
8
0
10
135.56455937500002
20
60.797953125
30
0
0
VERTEX
8
0
10
135.74063750000002
20
61.061475
30
0
0
VERTEX
8
0
10
135.94170937500002
20
61.306478125000005
30
0
0
VERTEX
8
0
10
136.16581875
20
61.5305875
30
0
0
VERTEX
8
0
10
136.410821875
20
61.731659375
30
0
0
VERTEX
8
0
10
136.67434375000002
20
61.9077375
30
0
0
VERTEX
8
0
10
136.95388125
20
62.057153125000006
30
0
0
VERTEX
8
0
10
137.24670625000002
20
62.17844375
30
0
0
VERTEX
8
0
10
137.549996875
20
62.270446875000005
30
0
0
VERTEX
8
0
10
137.86085937500002
20
62.33228125
30
0
0
VERTEX
8
0
10
138.02995
20
62.348934375000006
30
0
0
VERTEX
8
0
10
138.02995
20
59.442343750000006
30
0
0
SEQEND
0
POLYLINE
66
1
8
1_copper
10
0.0
20
0.0
30
0.0
70
1
0
VERTEX
8
0
10
153.0811625
20
59.442343750000006
30
0
0
VERTEX
8
0
10
153.097815625
20
59.6114375
30
0
0
VERTEX
8
0
10
153.15965
20
59.9223
30
0
0
VERTEX
8
0
10
153.25165312500002
20
60.225590625
30
0
0
VERTEX
8
0
10
153.37294375000002
20
60.518415625
30
0
0
VERTEX
8
0
10
153.522359375
20
60.797953125
30
0
0
VERTEX
8
0
10
153.6984375
20
61.061475
30
0
0
VERTEX
8
0
10
153.899509375
20
61.306478125000005
30
0
0
VERTEX
8
0
10
154.12361875000002
20
61.5305875
30
0
0
VERTEX
8
0
10
154.368621875
20
61.731659375
30
0
0
VERTEX
8
0
10
154.63214375
20
61.9077375
30
0
0
VERTEX
8
0
10
154.91168125000002
20
62.057153125000006
30
0
0
VERTEX
8
0
10
155.20450625
20
62.17844375
30
0
0
VERTEX
8
0
10
155.507796875
20
62.270446875000005
30
0
0
VERTEX
8
0
10
155.818659375
20
62.33228125
30
0
0
VERTEX
8
0
10
155.98775
20
62.348934375000006
30
0
0
VERTEX
8
0
10
155.98775
20
59.442343750000006
30
0
0
SEQEND
0
POLYLINE
66
1
8
1_copper
10
0.0
20
0.0
30
0.0
70
1
0
VERTEX
8
0
10
72.71310625000001
20
45.339
30
0
0
VERTEX
8
0
10
71.37400000000001
20
46.67810625
30
0
0
VERTEX
8
0
10
71.37400000000001
20
48.571890625
30
0
0
VERTEX
8
0
10
71.5071625
20
48.70505
30
0
0
VERTEX
8
0
10
71.51078125000001
20
48.7094875
30
0
0
VERTEX
8
0
10
71.51493125
20
48.713425
30
0
42
0.15312467584094633
0
VERTEX
8
0
10
71.55099687500001
20
48.797196875000004
30
0
0
VERTEX
8
0
10
71.5518
20
48.8128125
30
0
0
VERTEX
8
0
10
71.5518
20
56.299343750000006
30
0
0
VERTEX
8
0
10
71.87275625000001
20
57.074200000000005
30
0
0
VERTEX
8
0
10
72.46579687500001
20
57.667240625000005
30
0
0
VERTEX
8
0
10
73.24065312500001
20
57.988196875
30
0
0
VERTEX
8
0
10
74.07934375
20
57.988196875
30
0
0
VERTEX
8
0
10
74.8542
20
57.667240625000005
30
0
0
VERTEX
8
0
10
75.447240625
20
57.074200000000005
30
0
0
VERTEX
8
0
10
75.632896875
20
56.625984375
30
0
0
VERTEX
8
0
10
75.638525
20
56.615534375
30
0
0
VERTEX
8
0
10
75.643659375
20
56.604831250000004
30
0
42
0.6229736890880274
0
VERTEX
8
0
10
75.9160875
20
56.629987500000006
30
0
0
VERTEX
8
0
10
75.91770000000001
20
56.634965625
30
0
42
0.006473298064545595
0
VERTEX
8
0
10
75.9189125
20
56.638715625
30
0
0
VERTEX
8
0
10
75.92090312500001
20
56.6448625
30
0
0
VERTEX
8
0
10
76.018059375
20
57.0074625
30
0
0
VERTEX
8
0
10
76.40261875
20
57.673534375
30
0
0
VERTEX
8
0
10
76.7141625
20
57.985078125
30
0
0
VERTEX
8
0
10
76.71778125
20
57.989515625
30
0
0
VERTEX
8
0
10
76.72193125
20
57.993453125
30
0
42
0.15312467584094633
0
VERTEX
8
0
10
76.757996875
20
58.077225000000006
30
0
0
VERTEX
8
0
10
76.75880000000001
20
58.092840625
30
0
0
VERTEX
8
0
10
76.75880000000001
20
60.719084375
30
0
0
VERTEX
8
0
10
77.060421875
20
61.447259375
30
0
0
VERTEX
8
0
10
77.6177375
20
62.004575
30
0
0
VERTEX
8
0
10
78.3459125
20
62.306196875000005
30
0
0
VERTEX
8
0
10
79.134084375
20
62.306196875000005
30
0
0
VERTEX
8
0
10
79.86225937500001
20
62.004575
30
0
0
VERTEX
8
0
10
80.41957500000001
20
61.447259375
30
0
0
VERTEX
8
0
10
80.721196875
20
60.719084375
30
0
0
VERTEX
8
0
10
80.721196875
20
58.953396875
30
0
0
VERTEX
8
0
10
80.721584375
20
58.949593750000005
30
0
0
VERTEX
8
0
10
80.7213875
20
58.945784375
30
0
42
0.3701874288596992
0
VERTEX
8
0
10
80.85798125000001
20
58.8018
30
0
0
VERTEX
8
0
10
80.873596875
20
58.800996875
30
0
0
VERTEX
8
0
10
98.17456250000001
20
58.800996875
30
0
0
VERTEX
8
0
10
98.9174625
20
58.601937500000005
30
0
0
VERTEX
8
0
10
99.19722187500001
20
58.440415625
30
0
0
VERTEX
8
0
10
99.1983125
20
58.439925
30
0
0
VERTEX
8
0
10
99.1993125
20
58.439228125
30
0
42
0.10164285562126833
0
VERTEX
8
0
10
99.25780625
20
58.4208
30
0
0
VERTEX
8
0
10
99.27342187500001
20
58.419996875
30
0
0
VERTEX
8
0
10
99.38909375
20
58.419996875
30
0
0
VERTEX
8
0
10
99.76251875
20
58.265318750000006
30
0
0
VERTEX
8
0
10
100.68080312500001
20
57.347034375
30
0
0
VERTEX
8
0
10
100.685240625
20
57.343415625000006
30
0
0
VERTEX
8
0
10
100.689178125
20
57.339265625
30
0
42
0.15312467584094633
0
VERTEX
8
0
10
100.77295000000001
20
57.303200000000004
30
0
0
VERTEX
8
0
10
100.788565625
20
57.302396875
30
0
0
VERTEX
8
0
10
102.00529375
20
57.302396875
30
0
0
VERTEX
8
0
10
102.37871875
20
57.14771875
30
0
0
VERTEX
8
0
10
102.66451875
20
56.86191875
30
0
0
VERTEX
8
0
10
102.819196875
20
56.48849375
30
0
0
VERTEX
8
0
10
102.819196875
20
55.271503125
30
0
0
VERTEX
8
0
10
102.66451875
20
54.898078125000005
30
0
0
VERTEX
8
0
10
102.37871875
20
54.612278125
30
0
0
VERTEX
8
0
10
102.00529375
20
54.4576
30
0
0
VERTEX
8
0
10
100.788565625
20
54.4576
30
0
0
VERTEX
8
0
10
100.78286875
20
54.457021875
30
0
0
VERTEX
8
0
10
100.77715
20
54.457171875
30
0
42
0.1531278540915039
0
VERTEX
8
0
10
100.69240937500001
20
54.423437500000006
30
0
0
VERTEX
8
0
10
100.68080312500001
20
54.412962500000006
30
0
0
VERTEX
8
0
10
99.76251875
20
53.494678125
30
0
0
VERTEX
8
0
10
99.38909375
20
53.34
30
0
0
VERTEX
8
0
10
99.27342187500001
20
53.34
30
0
0
VERTEX
8
0
10
99.272221875
20
53.339878125000006
30
0
0
VERTEX
8
0
10
99.27101875000001
20
53.33998125
30
0
42
0.10164931615619616
0
VERTEX
8
0
10
99.21114375
20
53.326693750000004
30
0
0
VERTEX
8
0
10
99.19722187500001
20
53.319581250000006
30
0
0
VERTEX
8
0
10
98.9174625
20
53.158059375
30
0
0
VERTEX
8
0
10
98.17456250000001
20
52.959
30
0
0
VERTEX
8
0
10
78.355434375
20
52.959
30
0
0
VERTEX
8
0
10
77.61253437500001
20
53.158059375
30
0
0
VERTEX
8
0
10
76.94646250000001
20
53.54261875
30
0
0
VERTEX
8
0
10
76.40261875
20
54.0864625
30
0
0
VERTEX
8
0
10
76.052578125
20
54.692750000000004
30
0
0
VERTEX
8
0
10
76.04881875000001
20
54.697959375
30
0
0
VERTEX
8
0
10
76.045703125
20
54.703578125
30
0
42
0.6956334654502205
0
VERTEX
8
0
10
75.769
20
54.632165625000006
30
0
0
VERTEX
8
0
10
75.768196875
20
54.616550000000004
30
0
0
VERTEX
8
0
10
75.768196875
20
48.8128125
30
0
0
VERTEX
8
0
10
75.768775
20
48.807115625
30
0
0
VERTEX
8
0
10
75.768625
20
48.801396875
30
0
42
0.1531278540915039
0
VERTEX
8
0
10
75.80235937500001
20
48.71665625
30
0
0
VERTEX
8
0
10
75.81283437500001
20
48.70505
30
0
0
VERTEX
8
0
10
75.945996875
20
48.571890625
30
0
0
VERTEX
8
0
10
75.945996875
20
46.67810625
30
0
0
VERTEX
8
0
10
74.606890625
20
45.339
30
0
0
SEQEND
0
POLYLINE
66
1
8
1_copper
10
0.0
20
0.0
30
0.0
70
1
0
VERTEX
8
0
10
156.292534375
20
59.137534375
30
0
0
VERTEX
8
0
10
156.292534375
20
59.1375625
30
0
0
VERTEX
8
0
10
156.2925625
20
59.1375625
30
0
0
VERTEX
8
0
10
156.2925625
20
59.137534375
30
0
0
SEQEND
0
POLYLINE
66
1
8
1_copper
10
0.0
20
0.0
30
0.0
70
1
0
VERTEX
8
0
10
138.334734375
20
59.137534375
30
0
0
VERTEX
8
0
10
138.334734375
20
59.1375625
30
0
0
VERTEX
8
0
10
138.3347625
20
59.1375625
30
0
0
VERTEX
8
0
10
138.3347625
20
59.137534375
30
0
0
SEQEND
0
POLYLINE
66
1
8
1_copper
10
0.0
20
0.0
30
0.0
70
1
0
VERTEX
8
0
10
137.86085937500002
20
55.942815625
30
0
0
VERTEX
8
0
10
137.549996875
20
56.004650000000005
30
0
0
VERTEX
8
0
10
137.24670625000002
20
56.096653125
30
0
0
VERTEX
8
0
10
136.95388125
20
56.21794375
30
0
0
VERTEX
8
0
10
136.67434375000002
20
56.367359375
30
0
0
VERTEX
8
0
10
136.410821875
20
56.5434375
30
0
0
VERTEX
8
0
10
136.16581875
20
56.744509375
30
0
0
VERTEX
8
0
10
135.94170937500002
20
56.968618750000005
30
0
0
VERTEX
8
0
10
135.74063750000002
20
57.213621875
30
0
0
VERTEX
8
0
10
135.56455937500002
20
57.47714375
30
0
0
VERTEX
8
0
10
135.41514375
20
57.75668125
30
0
0
VERTEX
8
0
10
135.293853125
20
58.04950625
30
0
0
VERTEX
8
0
10
135.20185
20
58.352796875
30
0
0
VERTEX
8
0
10
135.14001562500002
20
58.663659375
30
0
0
VERTEX
8
0
10
135.1233625
20
58.832750000000004
30
0
0
VERTEX
8
0
10
138.02995
20
58.832750000000004
30
0
0
VERTEX
8
0
10
138.02995
20
55.926162500000004
30
0
0
SEQEND
0
POLYLINE
66
1
8
1_copper
10
0.0
20
0.0
30
0.0
70
1
0
VERTEX
8
0
10
156.59734375000002
20
58.832750000000004
30
0
0
VERTEX
8
0
10
159.503934375
20
58.832750000000004
30
0
0
VERTEX
8
0
10
159.48728125
20
58.663659375
30
0
0
VERTEX
8
0
10
159.425446875
20
58.352796875
30
0
0
VERTEX
8
0
10
159.33344375000001
20
58.04950625
30
0
0
VERTEX
8
0
10
159.21215312500001
20
57.75668125
30
0
0
VERTEX
8
0
10
159.0627375
20
57.47714375
30
0
0
VERTEX
8
0
10
158.886659375
20
57.213621875
30
0
0
VERTEX
8
0
10
158.6855875
20
56.968618750000005
30
0
0
VERTEX
8
0
10
158.461478125
20
56.744509375
30
0
0
VERTEX
8
0
10
158.216475
20
56.5434375
30
0
0
VERTEX
8
0
10
157.952953125
20
56.367359375
30
0
0
VERTEX
8
0
10
157.67341562500002
20
56.21794375
30
0
0
VERTEX
8
0
10
157.380590625
20
56.096653125
30
0
0
VERTEX
8
0
10
157.0773
20
56.004650000000005
30
0
0
VERTEX
8
0
10
156.7664375
20
55.942815625
30
0
0
VERTEX
8
0
10
156.59734375000002
20
55.926162500000004
30
0
0
SEQEND
0
POLYLINE
66
1
8
1_copper
10
0.0
20
0.0
30
0.0
70
1
0
VERTEX
8
0
10
138.63954375
20
58.832750000000004
30
0
0
VERTEX
8
0
10
141.546134375
20
58.832750000000004
30
0
0
VERTEX
8
0
10
141.52948125
20
58.663659375
30
0
0
VERTEX
8
0
10
141.467646875
20
58.352796875
30
0
0
VERTEX
8
0
10
141.37564375
20
58.04950625
30
0
0
VERTEX
8
0
10
141.254353125
20
57.75668125
30
0
0
VERTEX
8
0
10
141.1049375
20
57.47714375
30
0
0
VERTEX
8
0
10
140.928859375
20
57.213621875
30
0
0
VERTEX
8
0
10
140.7277875
20
56.968618750000005
30
0
0
VERTEX
8
0
10
140.503678125
20
56.744509375
30
0
0
VERTEX
8
0
10
140.258675
20
56.5434375
30
0
0
VERTEX
8
0
10
139.995153125
20
56.367359375
30
0
0
VERTEX
8
0
10
139.715615625
20
56.21794375
30
0
0
VERTEX
8
0
10
139.422790625
20
56.096653125
30
0
0
VERTEX
8
0
10
139.11950000000002
20
56.004650000000005
30
0
0
VERTEX
8
0
10
138.8086375
20
55.942815625
30
0
0
VERTEX
8
0
10
138.63954375
20
55.926162500000004
30
0
0
SEQEND
0
POLYLINE
66
1
8
1_copper
10
0.0
20
0.0
30
0.0
70
1
0
VERTEX
8
0
10
155.818659375
20
55.942815625
30
0
0
VERTEX
8
0
10
155.507796875
20
56.004650000000005
30
0
0
VERTEX
8
0
10
155.20450625
20
56.096653125
30
0
0
VERTEX
8
0
10
154.91168125000002
20
56.21794375
30
0
0
VERTEX
8
0
10
154.63214375
20
56.367359375
30
0
0
VERTEX
8
0
10
154.368621875
20
56.5434375
30
0
0
VERTEX
8
0
10
154.12361875000002
20
56.744509375
30
0
0
VERTEX
8
0
10
153.899509375
20
56.968618750000005
30
0
0
VERTEX
8
0
10
153.6984375
20
57.213621875
30
0
0
VERTEX
8
0
10
153.522359375
20
57.47714375
30
0
0
VERTEX
8
0
10
153.37294375000002
20
57.75668125
30
0
0
VERTEX
8
0
10
153.25165312500002
20
58.04950625
30
0
0
VERTEX
8
0
10
153.15965
20
58.352796875
30
0
0
VERTEX
8
0
10
153.097815625
20
58.663659375
30
0
0
VERTEX
8
0
10
153.0811625
20
58.832750000000004
30
0
0
VERTEX
8
0
10
155.98775
20
58.832750000000004
30
0
0
VERTEX
8
0
10
155.98775
20
55.926162500000004
30
0
0
SEQEND
0
POLYLINE
66
1
8
1_copper
10
0.0
20
0.0
30
0.0
70
1
0
VERTEX
8
0
10
146.049240625
20
42.413715625
30
0
0
VERTEX
8
0
10
144.41266562500002
20
42.868109375
30
0
0
VERTEX
8
0
10
142.91201875000002
20
43.6637
30
0
0
VERTEX
8
0
10
141.617475
20
44.76329375
30
0
0
VERTEX
8
0
10
140.589596875
20
46.115446875
30
0
0
VERTEX
8
0
10
140.108378125
20
47.155590625
30
0
0
VERTEX
8
0
10
140.107525
20
47.15703125
30
0
0
VERTEX
8
0
10
140.106946875
20
47.158596875
30
0
42
0.25880289426692166
0
VERTEX
8
0
10
139.985678125
20
47.243196875
30
0
0
VERTEX
8
0
10
139.9700625
20
47.244
30
0
0
VERTEX
8
0
10
130.425434375
20
47.244
30
0
0
VERTEX
8
0
10
129.68253437500002
20
47.443059375000004
30
0
0
VERTEX
8
0
10
129.01646250000002
20
47.82761875
30
0
0
VERTEX
8
0
10
128.47261875
20
48.3714625
30
0
0
VERTEX
8
0
10
128.088059375
20
49.037534375
30
0
0
VERTEX
8
0
10
127.88900000000001
20
49.780434375000006
30
0
0
VERTEX
8
0
10
127.88900000000001
20
56.264562500000004
30
0
0
VERTEX
8
0
10
128.088059375
20
57.0074625
30
0
0
VERTEX
8
0
10
128.47261875
20
57.673534375
30
0
0
VERTEX
8
0
10
129.01646250000002
20
58.217378125
30
0
0
VERTEX
8
0
10
129.68253437500002
20
58.601937500000005
30
0
0
VERTEX
8
0
10
130.425434375
20
58.800996875
30
0
0
VERTEX
8
0
10
131.19456250000002
20
58.800996875
30
0
0
VERTEX
8
0
10
131.9374625
20
58.601937500000005
30
0
0
VERTEX
8
0
10
132.603534375
20
58.217378125
30
0
0
VERTEX
8
0
10
133.14737812500002
20
57.673534375
30
0
0
VERTEX
8
0
10
133.5319375
20
57.0074625
30
0
0
VERTEX
8
0
10
133.73099687500002
20
56.264562500000004
30
0
0
VERTEX
8
0
10
133.73099687500002
20
53.238396875
30
0
0
VERTEX
8
0
10
133.731384375
20
53.23459375
30
0
0
VERTEX
8
0
10
133.7311875
20
53.230784375000006
30
0
42
0.3701874288596992
0
VERTEX
8
0
10
133.86778125
20
53.086800000000004
30
0
0
VERTEX
8
0
10
133.88339687500002
20
53.085996875
30
0
0
VERTEX
8
0
10
139.9700625
20
53.085996875
30
0
0
VERTEX
8
0
10
139.97173125
20
53.086165625
30
0
0
VERTEX
8
0
10
139.97339375
20
53.086034375000004
30
0
42
0.2588020236355687
0
VERTEX
8
0
10
140.10109375000002
20
53.160571875
30
0
0
VERTEX
8
0
10
140.108378125
20
53.174406250000004
30
0
0
VERTEX
8
0
10
140.589603125
20
54.21455625
30
0
0
VERTEX
8
0
10
141.6174875
20
55.566715625
30
0
0
VERTEX
8
0
10
142.912009375
20
56.66629375
30
0
0
VERTEX
8
0
10
144.41265
20
57.461881250000005
30
0
0
VERTEX
8
0
10
146.049240625
20
57.916281250000004
30
0
0
VERTEX
8
0
10
147.74523125000002
20
58.0082375
30
0
0
VERTEX
8
0
10
149.42138125
20
57.73344375
30
0
0
VERTEX
8
0
10
150.99923125
20
57.104771875000004
30
0
0
VERTEX
8
0
10
152.40506875
20
56.151587500000005
30
0
0
VERTEX
8
0
10
153.573109375
20
54.918503125
30
0
0
VERTEX
8
0
10
154.44878125
20
53.463128125000004
30
0
0
VERTEX
8
0
10
154.9911125
20
51.853540625
30
0
0
VERTEX
8
0
10
155.17475625
20
50.165
30
0
0
VERTEX
8
0
10
154.9911125
20
48.476456250000005
30
0
0
VERTEX
8
0
10
154.44878125
20
46.86686875
30
0
0
VERTEX
8
0
10
153.573109375
20
45.411493750000005
30
0
0
VERTEX
8
0
10
153.34228125
20
45.167812500000004
30
0
0
VERTEX
8
0
10
153.342271875
20
45.167803125
30
0
0
VERTEX
8
0
10
153.342265625
20
45.16779375
30
0
0
VERTEX
8
0
10
153.197925
20
45.015415625
30
0
0
VERTEX
8
0
10
153.197909375
20
45.015403125
30
0
0
VERTEX
8
0
10
153.197896875
20
45.0153875
30
0
0
VERTEX
8
0
10
152.9092
20
44.7106125
30
0
0
VERTEX
8
0
10
152.9091875
20
44.710603125
30
0
0
VERTEX
8
0
10
152.909178125
20
44.710590625
30
0
0
VERTEX
8
0
10
152.620475
20
44.405809375000004
30
0
0
VERTEX
8
0
10
152.620465625
20
44.405803125000006
30
0
0
VERTEX
8
0
10
152.620459375
20
44.40579375
30
0
0
VERTEX
8
0
10
152.47611875
20
44.253415625
30
0
0
VERTEX
8
0
10
152.476103125
20
44.253403125000006
30
0
0
VERTEX
8
0
10
152.476090625
20
44.2533875
30
0
0
VERTEX
8
0
10
152.40506875
20
44.178409375
30
0
0
VERTEX
8
0
10
150.99923125
20
43.225225
30
0
0
VERTEX
8
0
10
149.42138125
20
42.596553125
30
0
0
VERTEX
8
0
10
147.74523125000002
20
42.321759375
30
0
0
SEQEND
0
POLYLINE
66
1
8
1_copper
10
0.0
20
0.0
30
0.0
70
1
0
VERTEX
8
0
10
122.805434375
20
47.244
30
0
0
VERTEX
8
0
10
122.06253437500001
20
47.443059375000004
30
0
0
VERTEX
8
0
10
121.39646250000001
20
47.82761875
30
0
0
VERTEX
8
0
10
120.85261875
20
48.3714625
30
0
0
VERTEX
8
0
10
120.46805937500001
20
49.037534375
30
0
0
VERTEX
8
0
10
120.269
20
49.780434375000006
30
0
0
VERTEX
8
0
10
120.269
20
52.8066
30
0
0
VERTEX
8
0
10
120.2686125
20
52.810403125
30
0
0
VERTEX
8
0
10
120.268809375
20
52.814212500000004
30
0
42
0.3701874288596992
0
VERTEX
8
0
10
120.132215625
20
52.958196875000006
30
0
0
VERTEX
8
0
10
120.1166
20
52.959
30
0
0
VERTEX
8
0
10
115.820434375
20
52.959
30
0
0
VERTEX
8
0
10
115.077534375
20
53.158059375
30
0
0
VERTEX
8
0
10
114.4114625
20
53.54261875
30
0
0
VERTEX
8
0
10
113.86586875
20
54.088212500000004
30
0
0
VERTEX
8
0
10
113.863653125
20
54.090021875000005
30
0
0
VERTEX
8
0
10
113.86175625
20
54.092175000000005
30
0
42
0.49028556063369855
0
VERTEX
8
0
10
113.62402187500001
20
54.052890625
30
0
0
VERTEX
8
0
10
113.61730625
20
54.038771875
30
0
0
VERTEX
8
0
10
113.51031875000001
20
53.780478125
30
0
0
VERTEX
8
0
10
113.22451875
20
53.494678125
30
0
0
VERTEX
8
0
10
112.85109375
20
53.34
30
0
0
VERTEX
8
0
10
110.160903125
20
53.34
30
0
0
VERTEX
8
0
10
109.787478125
20
53.494678125
30
0
0
VERTEX
8
0
10
109.48024062500001
20
53.801915625
30
0
0
VERTEX
8
0
10
108.869196875
20
54.412962500000006
30
0
0
VERTEX
8
0
10
108.864759375
20
54.41658125
30
0
0
VERTEX
8
0
10
108.860821875
20
54.42073125
30
0
42
0.15312467584094633
0
VERTEX
8
0
10
108.77705
20
54.456796875
30
0
0
VERTEX
8
0
10
108.76143437500001
20
54.4576
30
0
0
VERTEX
8
0
10
107.544703125
20
54.4576
30
0
0
VERTEX
8
0
10
107.171278125
20
54.612278125
30
0
0
VERTEX
8
0
10
106.885478125
20
54.898078125000005
30
0
0
VERTEX
8
0
10
106.7308
20
55.271503125
30
0
0
VERTEX
8
0
10
106.7308
20
56.48849375
30
0
0
VERTEX
8
0
10
106.885478125
20
56.86191875
30
0
0
VERTEX
8
0
10
107.171278125
20
57.14771875
30
0
0
VERTEX
8
0
10
107.544703125
20
57.302396875
30
0
0
VERTEX
8
0
10
108.76143125
20
57.302396875
30
0
0
VERTEX
8
0
10
108.767128125
20
57.302975
30
0
0
VERTEX
8
0
10
108.772846875
20
57.302825000000006
30
0
42
0.1531278540915039
0
VERTEX
8
0
10
108.85758750000001
20
57.336559375
30
0
0
VERTEX
8
0
10
108.86919375000001
20
57.347034375
30
0
0
VERTEX
8
0
10
109.787478125
20
58.265318750000006
30
0
0
VERTEX
8
0
10
110.160903125
20
58.419996875
30
0
0
VERTEX
8
0
10
112.85109375
20
58.419996875
30
0
0
VERTEX
8
0
10
113.22451875
20
58.265318750000006
30
0
0
VERTEX
8
0
10
113.51031875000001
20
57.979518750000004
30
0
0
VERTEX
8
0
10
113.61730625
20
57.721225000000004
30
0
0
VERTEX
8
0
10
113.618665625
20
57.718700000000005
30
0
0
VERTEX
8
0
10
113.619590625
20
57.715990625
30
0
42
0.4902854060901859
0
VERTEX
8
0
10
113.8542625
20
57.661309375
30
0
0
VERTEX
8
0
10
113.86586875
20
57.671784375
30
0
0
VERTEX
8
0
10
114.4114625
20
58.217378125
30
0
0
VERTEX
8
0
10
115.077534375
20
58.601937500000005
30
0
0
VERTEX
8
0
10
115.820434375
20
58.800996875
30
0
0
VERTEX
8
0
10
123.5745625
20
58.800996875
30
0
0
VERTEX
8
0
10
124.3174625
20
58.601937500000005
30
0
0
VERTEX
8
0
10
124.983534375
20
58.217378125
30
0
0
VERTEX
8
0
10
125.52737812500001
20
57.673534375
30
0
0
VERTEX
8
0
10
125.91193750000001
20
57.0074625
30
0
0
VERTEX
8
0
10
126.11099687500001
20
56.264562500000004
30
0
0
VERTEX
8
0
10
126.11099687500001
20
49.780434375000006
30
0
0
VERTEX
8
0
10
125.91193750000001
20
49.037534375
30
0
0
VERTEX
8
0
10
125.52737812500001
20
48.3714625
30
0
0
VERTEX
8
0
10
124.983534375
20
47.82761875
30
0
0
VERTEX
8
0
10
124.3174625
20
47.443059375000004
30
0
0
VERTEX
8
0
10
123.5745625
20
47.244
30
0
0
SEQEND
0
POLYLINE
66
1
8
1_copper
10
0.0
20
0.0
30
0.0
70
1
0
VERTEX
8
0
10
64.1096
20
54.971453125000004
30
0
0
VERTEX
8
0
10
64.1096
20
54.97145625
30
0
0
VERTEX
8
0
10
64.49645625000001
20
54.5846
30
0
0
VERTEX
8
0
10
64.496453125
20
54.5846
30
0
0
SEQEND
0
POLYLINE
66
1
8
1_copper
10
0.0
20
0.0
30
0.0
70
1
0
VERTEX
8
0
10
67.9196
20
49.891453125000005
30
0
0
VERTEX
8
0
10
67.9196
20
49.891456250000005
30
0
0
VERTEX
8
0
10
68.30645625
20
49.5046
30
0
0
VERTEX
8
0
10
68.306453125
20
49.5046
30
0
0
SEQEND
0
POLYLINE
66
1
8
1_copper
10
0.0
20
0.0
30
0.0
70
1
0
VERTEX
8
0
10
87.63000000000001
20
47.098946875
30
0
0
VERTEX
8
0
10
87.63000000000001
20
47.09895
30
0
0
VERTEX
8
0
10
88.37395000000001
20
46.355000000000004
30
0
0
VERTEX
8
0
10
88.373946875
20
46.355000000000004
30
0
0
SEQEND
0
POLYLINE
66
1
8
1_copper
10
0.0
20
0.0
30
0.0
70
1
0
VERTEX
8
0
10
127.25043437500001
20
23.749000000000002
30
0
0
VERTEX
8
0
10
126.507534375
20
23.948059375
30
0
0
VERTEX
8
0
10
125.8414625
20
24.33261875
30
0
0
VERTEX
8
0
10
125.29761875000001
20
24.876462500000002
30
0
0
VERTEX
8
0
10
124.913059375
20
25.542534375000002
30
0
0
VERTEX
8
0
10
124.71400000000001
20
26.285434375
30
0
0
VERTEX
8
0
10
124.71400000000001
20
28.777028125
30
0
0
VERTEX
8
0
10
124.71257187500001
20
28.791071875
30
0
0
VERTEX
8
0
10
124.71140000000001
20
28.805065625
30
0
42
0.2588011196937224
0
VERTEX
8
0
10
124.61710625
20
28.918959375
30
0
0
VERTEX
8
0
10
124.615378125
20
28.919534375
30
0
0
VERTEX
8
0
10
124.614603125
20
28.919915625
30
0
0
VERTEX
8
0
10
124.6129375
20
28.920346875
30
0
0
VERTEX
8
0
10
124.602271875
20
28.9239
30
0
0
VERTEX
8
0
10
88.66275625
20
38.87638125
30
0
0
VERTEX
8
0
10
88.651396875
20
38.878318750000005
30
0
0
VERTEX
8
0
10
88.640128125
20
38.8808375
30
0
42
0.4289263645085084
0
VERTEX
8
0
10
88.47004375
20
38.739971875
30
0
0
VERTEX
8
0
10
88.46994375
20
38.7341375
30
0
42
0.006432501535670556
0
VERTEX
8
0
10
88.469875
20
38.730221875000005
30
0
0
VERTEX
8
0
10
88.469771875
20
38.724340625
30
0
0
VERTEX
8
0
10
88.481209375
20
38.387406250000005
30
0
0
VERTEX
8
0
10
88.38900000000001
20
38.141515625000004
30
0
0
VERTEX
8
0
10
88.38795937500001
20
38.137565625
30
0
0
VERTEX
8
0
10
88.386340625
20
38.133803125
30
0
42
0.05069217212055885
0
VERTEX
8
0
10
88.3801
20
38.10361875
30
0
0
VERTEX
8
0
10
88.37929687500001
20
38.088003125
30
0
0
VERTEX
8
0
10
88.37929687500001
20
37.89858125
30
0
0
VERTEX
8
0
10
88.2724
20
37.7916875
30
0
0
VERTEX
8
0
10
88.266546875
20
37.784509375
30
0
0
VERTEX
8
0
10
88.260140625
20
37.777840625
30
0
42
0.050687623151103596
0
VERTEX
8
0
10
88.2437
20
37.751771875
30
0
0
VERTEX
8
0
10
88.239509375
20
37.742128125
30
0
0
VERTEX
8
0
10
88.238646875
20
37.74048125
30
0
0
VERTEX
8
0
10
88.23836875
20
37.739506250000005
30
0
0
VERTEX
8
0
10
88.237465625
20
37.73743125
30
0
0
VERTEX
8
0
10
88.20400000000001
20
37.6481875
30
0
0
VERTEX
8
0
10
88.203990625
20
37.64816875
30
0
0
VERTEX
8
0
10
88.203984375
20
37.64815
30
0
0
VERTEX
8
0
10
88.186721875
20
37.602115625
30
0
0
VERTEX
8
0
10
87.614134375
20
36.98929375
30
0
0
VERTEX
8
0
10
87.375059375
20
36.880621875
30
0
0
VERTEX
8
0
10
87.371525
20
36.878559375
30
0
0
VERTEX
8
0
10
87.367721875
20
36.877046875000005
30
0
42
0.050689323299372965
0
VERTEX
8
0
10
87.341965625
20
36.860118750000005
30
0
0
VERTEX
8
0
10
87.330359375
20
36.84964375
30
0
0
VERTEX
8
0
10
87.19641875
20
36.7157
30
0
0
VERTEX
8
0
10
87.045246875
20
36.7157
30
0
0
VERTEX
8
0
10
87.03603125000001
20
36.7147625
30
0
0
VERTEX
8
0
10
87.026790625
20
36.714578125
30
0
42
0.05068809820470431
0
VERTEX
8
0
10
86.99673125000001
20
36.707771875
30
0
0
VERTEX
8
0
10
86.98693750000001
20
36.7039125
30
0
0
VERTEX
8
0
10
86.985171875
20
36.703359375000005
30
0
0
VERTEX
8
0
10
86.984290625
20
36.702871875
30
0
0
VERTEX
8
0
10
86.982184375
20
36.702040625
30
0
0
VERTEX
8
0
10
86.85061875000001
20
36.6422375
30
0
0
VERTEX
8
0
10
86.01240625
20
36.6137875
30
0
0
VERTEX
8
0
10
85.76651562500001
20
36.705996875000004
30
0
0
VERTEX
8
0
10
85.76256562500001
20
36.7070375
30
0
0
VERTEX
8
0
10
85.758803125
20
36.708656250000004
30
0
42
0.05069217212055885
0
VERTEX
8
0
10
85.72861875000001
20
36.714896875
30
0
0
VERTEX
8
0
10
85.713003125
20
36.7157
30
0
0
VERTEX
8
0
10
85.52358125
20
36.7157
30
0
0
VERTEX
8
0
10
85.416690625
20
36.82259375
30
0
0
VERTEX
8
0
10
85.4095125
20
36.828446875000004
30
0
0
VERTEX
8
0
10
85.40284687500001
20
36.83485
30
0
42
0.050694837967128786
0
VERTEX
8
0
10
85.37677500000001
20
36.85129375
30
0
0
VERTEX
8
0
10
85.36712187500001
20
36.855490625
30
0
0
VERTEX
8
0
10
85.36548437500001
20
36.856346875
30
0
0
VERTEX
8
0
10
85.36451562500001
20
36.856625
30
0
0
VERTEX
8
0
10
85.3624375
20
36.857528125
30
0
0
VERTEX
8
0
10
79.326909375
20
39.120853125000004
30
0
0
VERTEX
8
0
10
79.32664687500001
20
39.120921875
30
0
0
VERTEX
8
0
10
79.3264
20
39.12104375
30
0
42
0.49027822403431187
0
VERTEX
8
0
10
79.12180000000001
20
38.993771875
30
0
0
VERTEX
8
0
10
79.120996875
20
38.978156250000005
30
0
0
VERTEX
8
0
10
79.120996875
20
38.350434375
30
0
0
VERTEX
8
0
10
78.9219375
20
37.607534375
30
0
0
VERTEX
8
0
10
78.537378125
20
36.9414625
30
0
0
VERTEX
8
0
10
77.99353437500001
20
36.39761875
30
0
0
VERTEX
8
0
10
77.32746250000001
20
36.013059375000005
30
0
0
VERTEX
8
0
10
76.5845625
20
35.814
30
0
0
VERTEX
8
0
10
57.788040625
20
35.814
30
0
0
VERTEX
8
0
10
57.78234375
20
35.813421875
30
0
0
VERTEX
8
0
10
57.776625
20
35.813571875
30
0
42
0.1531278540915039
0
VERTEX
8
0
10
57.691884375
20
35.7798375
30
0
0
VERTEX
8
0
10
57.680278125
20
35.7693625
30
0
0
VERTEX
8
0
10
47.336881250000005
20
25.425968750000003
30
0
0
VERTEX
8
0
10
47.333575
20
25.4219125
30
0
0
VERTEX
8
0
10
47.32975625
20
25.4183375
30
0
0
VERTEX
8
0
10
47.320100000000004
20
25.406040625000003
30
0
0
VERTEX
8
0
10
47.250396875
20
25.307209375000003
30
0
0
VERTEX
8
0
10
47.062056250000005
20
25.150259375
30
0
0
VERTEX
8
0
10
47.061134375
20
25.149315625
30
0
0
VERTEX
8
0
10
47.05185625
20
25.14094375
30
0
0
VERTEX
8
0
10
46.878540625
20
24.967625
30
0
0
VERTEX
8
0
10
46.773818750000004
20
24.907165625
30
0
0
VERTEX
8
0
10
46.769568750000005
20
24.9041
30
0
0
VERTEX
8
0
10
46.7649625
20
24.9016375
30
0
0
VERTEX
8
0
10
46.752453125
20
24.892256250000003
30
0
0
VERTEX
8
0
10
46.65955625
20
24.814840625000002
30
0
0
VERTEX
8
0
10
46.4370125
20
24.711987500000003
30
0
0
VERTEX
8
0
10
46.435843750000004
20
24.711296875000002
30
0
0
VERTEX
8
0
10
46.424746875000004
20
24.705628125
30
0
0
VERTEX
8
0
10
46.21245625
20
24.583056250000002
30
0
0
VERTEX
8
0
10
46.095665625
20
24.551765625
30
0
0
VERTEX
8
0
10
46.09079375
20
24.549915625
30
0
0
VERTEX
8
0
10
46.085675
20
24.548721875000002
30
0
0
VERTEX
8
0
10
46.071165625
20
24.542896875
30
0
0
VERTEX
8
0
10
45.961403125000004
20
24.492165625000002
30
0
0
VERTEX
8
0
10
45.719837500000004
20
24.45041875
30
0
0
VERTEX
8
0
10
45.71851875
20
24.45005
30
0
0
VERTEX
8
0
10
45.70634375
20
24.44745
30
0
0
VERTEX
8
0
10
45.469556250000004
20
24.384
30
0
0
VERTEX
8
0
10
45.348625000000006
20
24.384
30
0
0
VERTEX
8
0
10
45.343425
20
24.383471875
30
0
0
VERTEX
8
0
10
45.33819375
20
24.38364375
30
0
0
VERTEX
8
0
10
45.322671875000005
20
24.381775
30
0
0
VERTEX
8
0
10
45.203521875
20
24.36118125
30
0
0
VERTEX
8
0
10
44.959387500000005
20
24.383375
30
0
0
VERTEX
8
0
10
44.958025
20
24.383359375
30
0
0
VERTEX
8
0
10
44.945590625
20
24.384
30
0
0
VERTEX
8
0
10
44.700440625
20
24.384
30
0
0
VERTEX
8
0
10
44.583646875
20
24.415296875000003
30
0
0
VERTEX
8
0
10
44.578478125000004
20
24.416134375000002
30
0
0
VERTEX
8
0
10
44.573471875
20
24.417653125
30
0
0
VERTEX
8
0
10
44.55799375
20
24.419865625
30
0
0
VERTEX
8
0
10
44.437559375
20
24.430812500000002
30
0
0
VERTEX
8
0
10
44.207478125
20
24.515440625
30
0
0
VERTEX
8
0
10
44.20618125
20
24.515775
30
0
0
VERTEX
8
0
10
44.1943125
20
24.519615625
30
0
0
VERTEX
8
0
10
43.957534375
20
24.583059375
30
0
0
VERTEX
8
0
10
43.852818750000004
20
24.643518750000002
30
0
0
VERTEX
8
0
10
43.84804375
20
24.6456625
30
0
0
VERTEX
8
0
10
43.84360625
20
24.648425
30
0
0
VERTEX
8
0
10
43.829228125
20
24.654568750000003
30
0
0
VERTEX
8
0
10
43.715731250000005
20
24.696315625
30
0
0
VERTEX
8
0
10
43.515384375000004
20
24.837615625
30
0
0
VERTEX
8
0
10
43.514225
20
24.83826875
30
0
0
VERTEX
8
0
10
43.503746875000004
20
24.845056250000003
30
0
0
VERTEX
8
0
10
43.291471875
20
24.9676125
30
0
0
VERTEX
8
0
10
43.205971875
20
25.053115625
30
0
0
VERTEX
8
0
10
43.20190625
20
25.056431250000003
30
0
0
VERTEX
8
0
10
43.1983375
20
25.060240625000002
30
0
0
VERTEX
8
0
10
43.186040625000004
20
25.069896875
30
0
0
VERTEX
8
0
10
43.087209375
20
25.1396
30
0
0
VERTEX
8
0
10
42.930259375
20
25.327940625
30
0
0
VERTEX
8
0
10
42.929315625
20
25.3288625
30
0
0
VERTEX
8
0
10
42.92094375
20
25.338140625
30
0
0
VERTEX
8
0
10
42.747625
20
25.511456250000002
30
0
0
VERTEX
8
0
10
42.687165625
20
25.616178125
30
0
0
VERTEX
8
0
10
42.6841
20
25.620428125
30
0
0
VERTEX
8
0
10
42.6816375
20
25.625034375000002
30
0
0
VERTEX
8
0
10
42.672259375
20
25.637543750000003
30
0
0
VERTEX
8
0
10
39.4198375
20
29.540446875
30
0
0
VERTEX
8
0
10
39.0971625
20
30.238596875000002
30
0
0
VERTEX
8
0
10
38.966181250000005
20
30.996475
30
0
0
VERTEX
8
0
10
39.0358125
20
31.7624375
30
0
0
VERTEX
8
0
10
39.0876375
20
31.903337500000003
30
0
0
VERTEX
8
0
10
39.087650000000004
20
31.9033625
30
0
0
VERTEX
8
0
10
39.08765625
20
31.903390625
30
0
0
VERTEX
8
0
10
39.143690625000005
20
32.05573125
30
0
0
VERTEX
8
0
10
39.14370625
20
32.0557625
30
0
0
VERTEX
8
0
10
39.143715625
20
32.055796875
30
0
0
VERTEX
8
0
10
39.255809375
20
32.360546875000004
30
0
0
VERTEX
8
0
10
39.255815625000004
20
32.3605625
30
0
0
VERTEX
8
0
10
39.25581875
20
32.360578125
30
0
0
VERTEX
8
0
10
39.3013125
20
32.484265625
30
0
0
VERTEX
8
0
10
39.74459375
20
33.112781250000005
30
0
0
VERTEX
8
0
10
40.335446875
20
33.605159375
30
0
0
VERTEX
8
0
10
41.033596875
20
33.927834375
30
0
0
VERTEX
8
0
10
41.791475000000005
20
34.058815625
30
0
0
VERTEX
8
0
10
42.5574375
20
33.989184375
30
0
0
VERTEX
8
0
10
43.279265625
20
33.723684375000005
30
0
0
VERTEX
8
0
10
43.907787500000005
20
33.2804
30
0
0
VERTEX
8
0
10
45.17445
20
31.760403125
30
0
0
VERTEX
8
0
10
45.182100000000005
20
31.752915625
30
0
0
VERTEX
8
0
10
45.189284375
20
31.744953125000002
30
0
42
0.3701872332645056
0
VERTEX
8
0
10
45.387684375
20
31.739728125000003
30
0
0
VERTEX
8
0
10
45.39313125
20
31.74464375
30
0
0
VERTEX
8
0
10
45.39481875
20
31.745909375
30
0
0
VERTEX
8
0
10
45.395956250000005
20
31.74719375
30
0
0
VERTEX
8
0
10
45.399290625
20
31.750203125000002
30
0
0
VERTEX
8
0
10
54.7214625
20
41.072378125
30
0
0
VERTEX
8
0
10
55.387534375
20
41.4569375
30
0
0
VERTEX
8
0
10
56.130434375
20
41.655996875
30
0
0
VERTEX
8
0
10
66.43825625000001
20
41.655996875
30
0
0
VERTEX
8
0
10
66.441103125
20
41.656287500000005
30
0
0
VERTEX
8
0
10
66.44396875
20
41.656103125
30
0
42
0.49027842607070704
0
VERTEX
8
0
10
66.58429062500001
20
41.851984375
30
0
0
VERTEX
8
0
10
66.57905625000001
20
41.866718750000004
30
0
0
VERTEX
8
0
10
66.4718
20
42.12565625
30
0
0
VERTEX
8
0
10
66.4718
20
42.964343750000005
30
0
0
VERTEX
8
0
10
66.79275625
20
43.739200000000004
30
0
0
VERTEX
8
0
10
67.385796875
20
44.332240625000004
30
0
0
VERTEX
8
0
10
68.16065312500001
20
44.653196875
30
0
0
VERTEX
8
0
10
76.16158125
20
44.653196875
30
0
0
VERTEX
8
0
10
76.163071875
20
44.653346875000004
30
0
0
VERTEX
8
0
10
76.16675000000001
20
44.653284375000005
30
0
0
VERTEX
8
0
10
76.54759375
20
44.666209375
30
0
0
VERTEX
8
0
10
76.55641875
20
44.6629
30
0
42
0.05724175788982905
0
VERTEX
8
0
10
76.5943125
20
44.654
30
0
0
VERTEX
8
0
10
76.60992812500001
20
44.653196875
30
0
0
VERTEX
8
0
10
76.619340625
20
44.653196875
30
0
0
VERTEX
8
0
10
76.805959375
20
44.575896875000005
30
0
0
VERTEX
8
0
10
76.812346875
20
44.57398125
30
0
0
VERTEX
8
0
10
76.81848125
20
44.571340625000005
30
0
42
0.05069217212055885
0
VERTEX
8
0
10
76.84866562500001
20
44.5651
30
0
0
VERTEX
8
0
10
76.86428125
20
44.564296875000004
30
0
0
VERTEX
8
0
10
77.036415625
20
44.564296875000004
30
0
0
VERTEX
8
0
10
77.14330625000001
20
44.457403125
30
0
0
VERTEX
8
0
10
77.150484375
20
44.451550000000005
30
0
0
VERTEX
8
0
10
77.15715
20
44.445146875
30
0
42
0.050694837967128786
0
VERTEX
8
0
10
77.183221875
20
44.428703125000006
30
0
0
VERTEX
8
0
10
77.192875
20
44.42450625
30
0
0
VERTEX
8
0
10
77.1945125
20
44.42365
30
0
0
VERTEX
8
0
10
77.19548125
20
44.423371875
30
0
0
VERTEX
8
0
10
77.197559375
20
44.42246875
30
0
0
VERTEX
8
0
10
83.23095625
20
42.159943750000004
30
0
0
VERTEX
8
0
10
83.245396875
20
42.156143750000005
30
0
0
VERTEX
8
0
10
83.26004375000001
20
42.152209375000005
30
0
42
0.428924848412245
0
VERTEX
8
0
10
83.43593125000001
20
42.285759375000005
30
0
0
VERTEX
8
0
10
83.4359625
20
42.28625625
30
0
0
VERTEX
8
0
10
83.436009375
20
42.2864875
30
0
0
VERTEX
8
0
10
83.4360125
20
42.287121875000004
30
0
0
VERTEX
8
0
10
83.4368625
20
42.30136875
30
0
0
VERTEX
8
0
10
83.4423125
20
42.95394375
30
0
0
VERTEX
8
0
10
83.647571875
20
43.695159375
30
0
0
VERTEX
8
0
10
84.03768125
20
44.357993750000006
30
0
0
VERTEX
8
0
10
84.58605
20
44.89728125
30
0
0
VERTEX
8
0
10
85.25531562500001
20
45.276259375
30
0
0
VERTEX
8
0
10
85.999859375
20
45.46910625
30
0
0
VERTEX
8
0
10
86.76894375
20
45.462684375
30
0
0
VERTEX
8
0
10
128.40215625000002
20
33.933484375
30
0
0
VERTEX
8
0
10
128.40256875
20
33.9334125
30
0
0
VERTEX
8
0
10
128.403384375
20
33.933150000000005
30
0
0
VERTEX
8
0
10
128.76673125
20
33.83579375
30
0
0
VERTEX
8
0
10
128.76686875000001
20
33.83573125
30
0
0
VERTEX
8
0
10
128.777103125
20
33.83048125
30
0
0
VERTEX
8
0
10
128.782665625
20
33.82863125
30
0
0
VERTEX
8
0
10
128.784484375
20
33.8278125
30
0
0
VERTEX
8
0
10
128.78450625
20
33.82780625
30
0
0
VERTEX
8
0
10
129.10547812500002
20
33.6389
30
0
0
VERTEX
8
0
10
129.105859375
20
33.638725
30
0
0
VERTEX
8
0
10
129.106578125
20
33.638259375000004
30
0
0
VERTEX
8
0
10
129.43236562500002
20
33.450165625000004
30
0
0
VERTEX
8
0
10
129.43245625
20
33.450090625
30
0
0
VERTEX
8
0
10
129.44100625000002
20
33.442353125000004
30
0
0
VERTEX
8
0
10
129.4459
20
33.439125000000004
30
0
0
VERTEX
8
0
10
129.447440625
20
33.43786875
30
0
0
VERTEX
8
0
10
129.447459375
20
33.437859375
30
0
0
VERTEX
8
0
10
129.708728125
20
33.1721875
30
0
0
VERTEX
8
0
10
129.709053125
20
33.17191875
30
0
0
VERTEX
8
0
10
129.70962500000002
20
33.171284375
30
0
0
VERTEX
8
0
10
129.97550625
20
32.90540625
30
0
0
VERTEX
8
0
10
129.975596875
20
32.90528125
30
0
0
VERTEX
8
0
10
129.981834375
20
32.895621875
30
0
0
VERTEX
8
0
10
129.9857
20
32.891265625
30
0
0
VERTEX
8
0
10
129.98687187500002
20
32.889640625
30
0
0
VERTEX
8
0
10
129.986903125
20
32.8896125
30
0
0
VERTEX
8
0
10
130.1705125
20
32.565359375
30
0
0
VERTEX
8
0
10
130.17075937500002
20
32.565009375
30
0
0
VERTEX
8
0
10
130.171146875
20
32.564253125
30
0
0
VERTEX
8
0
10
130.35915
20
32.238631250000005
30
0
0
VERTEX
8
0
10
130.359209375
20
32.238475
30
0
0
VERTEX
8
0
10
130.362721875
20
32.227559375
30
0
0
VERTEX
8
0
10
130.36535625000002
20
32.22229375
30
0
0
VERTEX
8
0
10
130.366065625
20
32.220425
30
0
0
VERTEX
8
0
10
130.36606875
20
32.22041875
30
0
0
VERTEX
8
0
10
130.45943125
20
31.85995625
30
0
0
VERTEX
8
0
10
130.459578125
20
31.859562500000003
30
0
0
VERTEX
8
0
10
130.45975625
20
31.858725000000003
30
0
0
VERTEX
8
0
10
130.55714375
20
31.495284375
30
0
0
VERTEX
8
0
10
130.557159375
20
31.495118750000003
30
0
0
VERTEX
8
0
10
130.557728125
20
31.483665625
30
0
0
VERTEX
8
0
10
130.558909375
20
31.4779
30
0
0
VERTEX
8
0
10
130.5591125
20
31.475896875
30
0
0
VERTEX
8
0
10
130.5591125
20
31.47589375
30
0
0
VERTEX
8
0
10
130.55600312500002
20
31.103506250000002
30
0
0
VERTEX
8
0
10
130.556040625
20
31.103096875000002
30
0
0
VERTEX
8
0
10
130.555996875
20
31.102234375000002
30
0
0
VERTEX
8
0
10
130.555996875
20
26.285434375
30
0
0
VERTEX
8
0
10
130.35693750000002
20
25.542534375000002
30
0
0
VERTEX
8
0
10
129.972378125
20
24.876462500000002
30
0
0
VERTEX
8
0
10
129.428534375
20
24.33261875
30
0
0
VERTEX
8
0
10
128.7624625
20
23.948059375
30
0
0
VERTEX
8
0
10
128.0195625
20
23.749000000000002
30
0
0
SEQEND
0
POLYLINE
66
1
8
1_copper
10
0.0
20
0.0
30
0.0
70
1
0
VERTEX
8
0
10
138.63954375
20
41.49724375
30
0
0
VERTEX
8
0
10
138.63954375
20
44.403834375
30
0
0
VERTEX
8
0
10
138.8086375
20
44.387181250000005
30
0
0
VERTEX
8
0
10
139.11950000000002
20
44.325346875
30
0
0
VERTEX
8
0
10
139.422790625
20
44.23334375
30
0
0
VERTEX
8
0
10
139.715615625
20
44.112053125
30
0
0
VERTEX
8
0
10
139.995153125
20
43.9626375
30
0
0
VERTEX
8
0
10
140.258675
20
43.786559375
30
0
0
VERTEX
8
0
10
140.503678125
20
43.5854875
30
0
0
VERTEX
8
0
10
140.7277875
20
43.361378125
30
0
0
VERTEX
8
0
10
140.928859375
20
43.116375000000005
30
0
0
VERTEX
8
0
10
141.1049375
20
42.852853125
30
0
0
VERTEX
8
0
10
141.254353125
20
42.573315625
30
0
0
VERTEX
8
0
10
141.37564375
20
42.280490625
30
0
0
VERTEX
8
0
10
141.467646875
20
41.9772
30
0
0
VERTEX
8
0
10
141.52948125
20
41.666337500000004
30
0
0
VERTEX
8
0
10
141.546134375
20
41.49724375
30
0
0
SEQEND
0
POLYLINE
66
1
8
1_copper
10
0.0
20
0.0
30
0.0
70
1
0
VERTEX
8
0
10
135.1233625
20
41.49724375
30
0
0
VERTEX
8
0
10
135.14001562500002
20
41.666337500000004
30
0
0
VERTEX
8
0
10
135.20185
20
41.9772
30
0
0
VERTEX
8
0
10
135.293853125
20
42.280490625
30
0
0
VERTEX
8
0
10
135.41514375
20
42.573315625
30
0
0
VERTEX
8
0
10
135.56455937500002
20
42.852853125
30
0
0
VERTEX
8
0
10
135.74063750000002
20
43.116375000000005
30
0
0
VERTEX
8
0
10
135.94170937500002
20
43.361378125
30
0
0
VERTEX
8
0
10
136.16581875
20
43.5854875
30
0
0
VERTEX
8
0
10
136.410821875
20
43.786559375
30
0
0
VERTEX
8
0
10
136.67434375000002
20
43.9626375
30
0
0
VERTEX
8
0
10
136.95388125
20
44.112053125
30
0
0
VERTEX
8
0
10
137.24670625000002
20
44.23334375
30
0
0
VERTEX
8
0
10
137.549996875
20
44.325346875
30
0
0
VERTEX
8
0
10
137.86085937500002
20
44.387181250000005
30
0
0
VERTEX
8
0
10
138.02995
20
44.403834375
30
0
0
VERTEX
8
0
10
138.02995
20
41.49724375
30
0
0
SEQEND
0
POLYLINE
66
1
8
1_copper
10
0.0
20
0.0
30
0.0
70
1
0
VERTEX
8
0
10
156.61004375000002
20
41.49724375
30
0
0
VERTEX
8
0
10
156.61004375000002
20
44.403834375
30
0
0
VERTEX
8
0
10
156.77913750000002
20
44.387181250000005
30
0
0
VERTEX
8
0
10
157.09
20
44.325346875
30
0
0
VERTEX
8
0
10
157.39329062500002
20
44.23334375
30
0
0
VERTEX
8
0
10
157.686115625
20
44.112053125
30
0
0
VERTEX
8
0
10
157.96565312500002
20
43.9626375
30
0
0
VERTEX
8
0
10
158.229175
20
43.786559375
30
0
0
VERTEX
8
0
10
158.474178125
20
43.5854875
30
0
0
VERTEX
8
0
10
158.69828750000002
20
43.361378125
30
0
0
VERTEX
8
0
10
158.89935937500002
20
43.116375000000005
30
0
0
VERTEX
8
0
10
159.07543750000002
20
42.852853125
30
0
0
VERTEX
8
0
10
159.224853125
20
42.573315625
30
0
0
VERTEX
8
0
10
159.34614375
20
42.280490625
30
0
0
VERTEX
8
0
10
159.438146875
20
41.9772
30
0
0
VERTEX
8
0
10
159.49998125000002
20
41.666337500000004
30
0
0
VERTEX
8
0
10
159.516634375
20
41.49724375
30
0
0
SEQEND
0
POLYLINE
66
1
8
1_copper
10
0.0
20
0.0
30
0.0
70
1
0
VERTEX
8
0
10
153.0938625
20
41.49724375
30
0
0
VERTEX
8
0
10
153.110515625
20
41.666337500000004
30
0
0
VERTEX
8
0
10
153.17235
20
41.9772
30
0
0
VERTEX
8
0
10
153.264353125
20
42.280490625
30
0
0
VERTEX
8
0
10
153.38564375
20
42.573315625
30
0
0
VERTEX
8
0
10
153.535059375
20
42.852853125
30
0
0
VERTEX
8
0
10
153.7111375
20
43.116375000000005
30
0
0
VERTEX
8
0
10
153.912209375
20
43.361378125
30
0
0
VERTEX
8
0
10
154.13631875000002
20
43.5854875
30
0
0
VERTEX
8
0
10
154.381321875
20
43.786559375
30
0
0
VERTEX
8
0
10
154.64484375
20
43.9626375
30
0
0
VERTEX
8
0
10
154.92438125
20
44.112053125
30
0
0
VERTEX
8
0
10
155.21720625
20
44.23334375
30
0
0
VERTEX
8
0
10
155.52049687500002
20
44.325346875
30
0
0
VERTEX
8
0
10
155.831359375
20
44.387181250000005
30
0
0
VERTEX
8
0
10
156.00045
20
44.403834375
30
0
0
VERTEX
8
0
10
156.00045
20
41.49724375
30
0
0
SEQEND
0
POLYLINE
66
1
8
1_copper
10
0.0
20
0.0
30
0.0
70
1
0
VERTEX
8
0
10
122.5296
20
42.271453125
30
0
0
VERTEX
8
0
10
122.5296
20
42.27145625
30
0
0
VERTEX
8
0
10
122.91645625000001
20
41.8846
30
0
0
VERTEX
8
0
10
122.916453125
20
41.8846
30
0
0
SEQEND
0
POLYLINE
66
1
8
1_copper
10
0.0
20
0.0
30
0.0
70
1
0
VERTEX
8
0
10
130.1496
20
42.271453125
30
0
0
VERTEX
8
0
10
130.1496
20
42.27145625
30
0
0
VERTEX
8
0
10
130.53645625000001
20
41.8846
30
0
0
VERTEX
8
0
10
130.536453125
20
41.8846
30
0
0
SEQEND
0
POLYLINE
66
1
8
1_copper
10
0.0
20
0.0
30
0.0
70
1
0
VERTEX
8
0
10
156.305234375
20
41.192434375000005
30
0
0
VERTEX
8
0
10
156.305234375
20
41.192462500000005
30
0
0
VERTEX
8
0
10
156.3052625
20
41.192462500000005
30
0
0
VERTEX
8
0
10
156.3052625
20
41.192434375000005
30
0
0
SEQEND
0
POLYLINE
66
1
8
1_copper
10
0.0
20
0.0
30
0.0
70
1
0
VERTEX
8
0
10
138.334734375
20
41.192434375000005
30
0
0
VERTEX
8
0
10
138.334734375
20
41.192462500000005
30
0
0
VERTEX
8
0
10
138.3347625
20
41.192462500000005
30
0
0
VERTEX
8
0
10
138.3347625
20
41.192434375000005
30
0
0
SEQEND
0
POLYLINE
66
1
8
1_copper
10
0.0
20
0.0
30
0.0
70
1
0
VERTEX
8
0
10
155.831359375
20
37.997715625000005
30
0
0
VERTEX
8
0
10
155.52049687500002
20
38.05955
30
0
0
VERTEX
8
0
10
155.21720625
20
38.151553125
30
0
0
VERTEX
8
0
10
154.92438125
20
38.27284375
30
0
0
VERTEX
8
0
10
154.64484375
20
38.422259375
30
0
0
VERTEX
8
0
10
154.381321875
20
38.5983375
30
0
0
VERTEX
8
0
10
154.13631875000002
20
38.799409375
30
0
0
VERTEX
8
0
10
153.912209375
20
39.02351875
30
0
0
VERTEX
8
0
10
153.7111375
20
39.268521875000005
30
0
0
VERTEX
8
0
10
153.535059375
20
39.53204375
30
0
0
VERTEX
8
0
10
153.38564375
20
39.81158125
30
0
0
VERTEX
8
0
10
153.264353125
20
40.104406250000004
30
0
0
VERTEX
8
0
10
153.17235
20
40.407696875
30
0
0
VERTEX
8
0
10
153.110515625
20
40.718559375000005
30
0
0
VERTEX
8
0
10
153.0938625
20
40.88765
30
0
0
VERTEX
8
0
10
156.00045
20
40.88765
30
0
0
VERTEX
8
0
10
156.00045
20
37.9810625
30
0
0
SEQEND
0
POLYLINE
66
1
8
1_copper
10
0.0
20
0.0
30
0.0
70
1
0
VERTEX
8
0
10
156.61004375000002
20
40.88765
30
0
0
VERTEX
8
0
10
159.516634375
20
40.88765
30
0
0
VERTEX
8
0
10
159.49998125000002
20
40.718559375000005
30
0
0
VERTEX
8
0
10
159.438146875
20
40.407696875
30
0
0
VERTEX
8
0
10
159.34614375
20
40.104406250000004
30
0
0
VERTEX
8
0
10
159.224853125
20
39.81158125
30
0
0
VERTEX
8
0
10
159.07543750000002
20
39.53204375
30
0
0
VERTEX
8
0
10
158.89935937500002
20
39.268521875000005
30
0
0
VERTEX
8
0
10
158.69828750000002
20
39.02351875
30
0
0
VERTEX
8
0
10
158.474178125
20
38.799409375
30
0
0
VERTEX
8
0
10
158.229175
20
38.5983375
30
0
0
VERTEX
8
0
10
157.96565312500002
20
38.422259375
30
0
0
VERTEX
8
0
10
157.686115625
20
38.27284375
30
0
0
VERTEX
8
0
10
157.39329062500002
20
38.151553125
30
0
0
VERTEX
8
0
10
157.09
20
38.05955
30
0
0
VERTEX
8
0
10
156.77913750000002
20
37.997715625000005
30
0
0
VERTEX
8
0
10
156.61004375000002
20
37.9810625
30
0
0
SEQEND
0
POLYLINE
66
1
8
1_copper
10
0.0
20
0.0
30
0.0
70
1
0
VERTEX
8
0
10
137.86085937500002
20
37.997715625000005
30
0
0
VERTEX
8
0
10
137.549996875
20
38.05955
30
0
0
VERTEX
8
0
10
137.24670625000002
20
38.151553125
30
0
0
VERTEX
8
0
10
136.95388125
20
38.27284375
30
0
0
VERTEX
8
0
10
136.67434375000002
20
38.422259375
30
0
0
VERTEX
8
0
10
136.410821875
20
38.5983375
30
0
0
VERTEX
8
0
10
136.16581875
20
38.799409375
30
0
0
VERTEX
8
0
10
135.94170937500002
20
39.02351875
30
0
0
VERTEX
8
0
10
135.74063750000002
20
39.268521875000005
30
0
0
VERTEX
8
0
10
135.56455937500002
20
39.53204375
30
0
0
VERTEX
8
0
10
135.41514375
20
39.81158125
30
0
0
VERTEX
8
0
10
135.293853125
20
40.104406250000004
30
0
0
VERTEX
8
0
10
135.20185
20
40.407696875
30
0
0
VERTEX
8
0
10
135.14001562500002
20
40.718559375000005
30
0
0
VERTEX
8
0
10
135.1233625
20
40.88765
30
0
0
VERTEX
8
0
10
138.02995
20
40.88765
30
0
0
VERTEX
8
0
10
138.02995
20
37.9810625
30
0
0
SEQEND
0
POLYLINE
66
1
8
1_copper
10
0.0
20
0.0
30
0.0
70
1
0
VERTEX
8
0
10
138.63954375
20
40.88765
30
0
0
VERTEX
8
0
10
141.546134375
20
40.88765
30
0
0
VERTEX
8
0
10
141.52948125
20
40.718559375000005
30
0
0
VERTEX
8
0
10
141.467646875
20
40.407696875
30
0
0
VERTEX
8
0
10
141.37564375
20
40.104406250000004
30
0
0
VERTEX
8
0
10
141.254353125
20
39.81158125
30
0
0
VERTEX
8
0
10
141.1049375
20
39.53204375
30
0
0
VERTEX
8
0
10
140.928859375
20
39.268521875000005
30
0
0
VERTEX
8
0
10
140.7277875
20
39.02351875
30
0
0
VERTEX
8
0
10
140.503678125
20
38.799409375
30
0
0
VERTEX
8
0
10
140.258675
20
38.5983375
30
0
0
VERTEX
8
0
10
139.995153125
20
38.422259375
30
0
0
VERTEX
8
0
10
139.715615625
20
38.27284375
30
0
0
VERTEX
8
0
10
139.422790625
20
38.151553125
30
0
0
VERTEX
8
0
10
139.11950000000002
20
38.05955
30
0
0
VERTEX
8
0
10
138.8086375
20
37.997715625000005
30
0
0
VERTEX
8
0
10
138.63954375
20
37.9810625
30
0
0
SEQEND
0
POLYLINE
66
1
8
1_copper
10
0.0
20
0.0
30
0.0
70
1
0
VERTEX
8
0
10
7.19454375
20
28.962343750000002
30
0
0
VERTEX
8
0
10
7.19454375
20
31.868934375000002
30
0
0
VERTEX
8
0
10
7.3636375
20
31.85228125
30
0
0
VERTEX
8
0
10
7.6745
20
31.790446875
30
0
0
VERTEX
8
0
10
7.977790625000001
20
31.698443750000003
30
0
0
VERTEX
8
0
10
8.270615625
20
31.577153125000002
30
0
0
VERTEX
8
0
10
8.550153125
20
31.427737500000003
30
0
0
VERTEX
8
0
10
8.813675
20
31.251659375000003
30
0
0
VERTEX
8
0
10
9.058678125
20
31.050587500000002
30
0
0
VERTEX
8
0
10
9.282787500000001
20
30.826478125
30
0
0
VERTEX
8
0
10
9.483859375
20
30.581475
30
0
0
VERTEX
8
0
10
9.6599375
20
30.317953125000003
30
0
0
VERTEX
8
0
10
9.809353125000001
20
30.038415625000003
30
0
0
VERTEX
8
0
10
9.93064375
20
29.745590625000002
30
0
0
VERTEX
8
0
10
10.022646875000001
20
29.442300000000003
30
0
0
VERTEX
8
0
10
10.08448125
20
29.1314375
30
0
0
VERTEX
8
0
10
10.101134375
20
28.962343750000002
30
0
0
SEQEND
0
POLYLINE
66
1
8
1_copper
10
0.0
20
0.0
30
0.0
70
1
0
VERTEX
8
0
10
21.6361625
20
28.962343750000002
30
0
0
VERTEX
8
0
10
21.652815625000002
20
29.1314375
30
0
0
VERTEX
8
0
10
21.714650000000002
20
29.442300000000003
30
0
0
VERTEX
8
0
10
21.806653125
20
29.745590625000002
30
0
0
VERTEX
8
0
10
21.92794375
20
30.038415625000003
30
0
0
VERTEX
8
0
10
22.077359375
20
30.317953125000003
30
0
0
VERTEX
8
0
10
22.2534375
20
30.581475
30
0
0
VERTEX
8
0
10
22.454509375
20
30.826478125
30
0
0
VERTEX
8
0
10
22.678618750000002
20
31.050587500000002
30
0
0
VERTEX
8
0
10
22.923621875000002
20
31.251659375000003
30
0
0
VERTEX
8
0
10
23.18714375
20
31.427737500000003
30
0
0
VERTEX
8
0
10
23.46668125
20
31.577153125000002
30
0
0
VERTEX
8
0
10
23.75950625
20
31.698443750000003
30
0
0
VERTEX
8
0
10
24.062796875
20
31.790446875
30
0
0
VERTEX
8
0
10
24.373659375000003
20
31.85228125
30
0
0
VERTEX
8
0
10
24.54275
20
31.868934375000002
30
0
0
VERTEX
8
0
10
24.54275
20
28.962343750000002
30
0
0
SEQEND
0
POLYLINE
66
1
8
1_copper
10
0.0
20
0.0
30
0.0
70
1
0
VERTEX
8
0
10
25.15234375
20
28.962343750000002
30
0
0
VERTEX
8
0
10
25.15234375
20
31.868934375000002
30
0
0
VERTEX
8
0
10
25.321437500000002
20
31.85228125
30
0
0
VERTEX
8
0
10
25.6323
20
31.790446875
30
0
0
VERTEX
8
0
10
25.935590625
20
31.698443750000003
30
0
0
VERTEX
8
0
10
26.228415625
20
31.577153125000002
30
0
0
VERTEX
8
0
10
26.507953125
20
31.427737500000003
30
0
0
VERTEX
8
0
10
26.771475000000002
20
31.251659375000003
30
0
0
VERTEX
8
0
10
27.016478125000003
20
31.050587500000002
30
0
0
VERTEX
8
0
10
27.2405875
20
30.826478125
30
0
0
VERTEX
8
0
10
27.441659375
20
30.581475
30
0
0
VERTEX
8
0
10
27.6177375
20
30.317953125000003
30
0
0
VERTEX
8
0
10
27.767153125
20
30.038415625000003
30
0
0
VERTEX
8
0
10
27.88844375
20
29.745590625000002
30
0
0
VERTEX
8
0
10
27.980446875000002
20
29.442300000000003
30
0
0
VERTEX
8
0
10
28.042281250000002
20
29.1314375
30
0
0
VERTEX
8
0
10
28.058934375
20
28.962343750000002
30
0
0
SEQEND
0
POLYLINE
66
1
8
1_copper
10
0.0
20
0.0
30
0.0
70
1
0
VERTEX
8
0
10
53.843362500000005
20
28.962343750000002
30
0
0
VERTEX
8
0
10
53.860015625
20
29.1314375
30
0
0
VERTEX
8
0
10
53.92185
20
29.442300000000003
30
0
0
VERTEX
8
0
10
54.013853125000004
20
29.745590625000002
30
0
0
VERTEX
8
0
10
54.135143750000005
20
30.038415625000003
30
0
0
VERTEX
8
0
10
54.284559375
20
30.317953125000003
30
0
0
VERTEX
8
0
10
54.460637500000004
20
30.581475
30
0
0
VERTEX
8
0
10
54.661709375
20
30.826478125
30
0
0
VERTEX
8
0
10
54.885818750000006
20
31.050587500000002
30
0
0
VERTEX
8
0
10
55.130821875
20
31.251659375000003
30
0
0
VERTEX
8
0
10
55.394343750000004
20
31.427737500000003
30
0
0
VERTEX
8
0
10
55.67388125
20
31.577153125000002
30
0
0
VERTEX
8
0
10
55.96670625
20
31.698443750000003
30
0
0
VERTEX
8
0
10
56.269996875000004
20
31.790446875
30
0
0
VERTEX
8
0
10
56.580859375
20
31.85228125
30
0
0
VERTEX
8
0
10
56.749950000000005
20
31.868934375000002
30
0
0
VERTEX
8
0
10
56.749950000000005
20
28.962343750000002
30
0
0
SEQEND
0
POLYLINE
66
1
8
1_copper
10
0.0
20
0.0
30
0.0
70
1
0
VERTEX
8
0
10
57.35954375
20
28.962343750000002
30
0
0
VERTEX
8
0
10
57.35954375
20
31.868934375000002
30
0
0
VERTEX
8
0
10
57.5286375
20
31.85228125
30
0
0
VERTEX
8
0
10
57.8395
20
31.790446875
30
0
0
VERTEX
8
0
10
58.142790625
20
31.698443750000003
30
0
0
VERTEX
8
0
10
58.435615625000004
20
31.577153125000002
30
0
0
VERTEX
8
0
10
58.715153125
20
31.427737500000003
30
0
0
VERTEX
8
0
10
58.978675
20
31.251659375000003
30
0
0
VERTEX
8
0
10
59.223678125000006
20
31.050587500000002
30
0
0
VERTEX
8
0
10
59.447787500000004
20
30.826478125
30
0
0
VERTEX
8
0
10
59.648859375
20
30.581475
30
0
0
VERTEX
8
0
10
59.824937500000004
20
30.317953125000003
30
0
0
VERTEX
8
0
10
59.974353125
20
30.038415625000003
30
0
0
VERTEX
8
0
10
60.09564375
20
29.745590625000002
30
0
0
VERTEX
8
0
10
60.187646875000006
20
29.442300000000003
30
0
0
VERTEX
8
0
10
60.24948125
20
29.1314375
30
0
0
VERTEX
8
0
10
60.266134375
20
28.962343750000002
30
0
0
SEQEND
0
POLYLINE
66
1
8
1_copper
10
0.0
20
0.0
30
0.0
70
1
0
VERTEX
8
0
10
75.31734375
20
28.962343750000002
30
0
0
VERTEX
8
0
10
75.31734375
20
31.868934375000002
30
0
0
VERTEX
8
0
10
75.48643750000001
20
31.85228125
30
0
0
VERTEX
8
0
10
75.7973
20
31.790446875
30
0
0
VERTEX
8
0
10
76.10059062500001
20
31.698443750000003
30
0
0
VERTEX
8
0
10
76.393415625
20
31.577153125000002
30
0
0
VERTEX
8
0
10
76.672953125
20
31.427737500000003
30
0
0
VERTEX
8
0
10
76.936475
20
31.251659375000003
30
0
0
VERTEX
8
0
10
77.181478125
20
31.050587500000002
30
0
0
VERTEX
8
0
10
77.40558750000001
20
30.826478125
30
0
0
VERTEX
8
0
10
77.606659375
20
30.581475
30
0
0
VERTEX
8
0
10
77.78273750000001
20
30.317953125000003
30
0
0
VERTEX
8
0
10
77.932153125
20
30.038415625000003
30
0
0
VERTEX
8
0
10
78.05344375
20
29.745590625000002
30
0
0
VERTEX
8
0
10
78.145446875
20
29.442300000000003
30
0
0
VERTEX
8
0
10
78.20728125000001
20
29.1314375
30
0
0
VERTEX
8
0
10
78.223934375
20
28.962343750000002
30
0
0
SEQEND
0
POLYLINE
66
1
8
1_copper
10
0.0
20
0.0
30
0.0
70
1
0
VERTEX
8
0
10
84.9583625
20
28.962343750000002
30
0
0
VERTEX
8
0
10
84.975015625
20
29.1314375
30
0
0
VERTEX
8
0
10
85.03685
20
29.442300000000003
30
0
0
VERTEX
8
0
10
85.128853125
20
29.745590625000002
30
0
0
VERTEX
8
0
10
85.25014375
20
30.038415625000003
30
0
0
VERTEX
8
0
10
85.39955937500001
20
30.317953125000003
30
0
0
VERTEX
8
0
10
85.5756375
20
30.581475
30
0
0
VERTEX
8
0
10
85.77670937500001
20
30.826478125
30
0
0
VERTEX
8
0
10
86.00081875000001
20
31.050587500000002
30
0
0
VERTEX
8
0
10
86.245821875
20
31.251659375000003
30
0
0
VERTEX
8
0
10
86.50934375
20
31.427737500000003
30
0
0
VERTEX
8
0
10
86.78888125
20
31.577153125000002
30
0
0
VERTEX
8
0
10
87.08170625000001
20
31.698443750000003
30
0
0
VERTEX
8
0
10
87.384996875
20
31.790446875
30
0
0
VERTEX
8
0
10
87.695859375
20
31.85228125
30
0
0
VERTEX
8
0
10
87.86495000000001
20
31.868934375000002
30
0
0
VERTEX
8
0
10
87.86495000000001
20
28.962343750000002
30
0
0
SEQEND
0
POLYLINE
66
1
8
1_copper
10
0.0
20
0.0
30
0.0
70
1
0
VERTEX
8
0
10
88.47454375000001
20
28.962343750000002
30
0
0
VERTEX
8
0
10
88.47454375000001
20
31.868934375000002
30
0
0
VERTEX
8
0
10
88.64363750000001
20
31.85228125
30
0
0
VERTEX
8
0
10
88.95450000000001
20
31.790446875
30
0
0
VERTEX
8
0
10
89.257790625
20
31.698443750000003
30
0
0
VERTEX
8
0
10
89.550615625
20
31.577153125000002
30
0
0
VERTEX
8
0
10
89.83015312500001
20
31.427737500000003
30
0
0
VERTEX
8
0
10
90.093675
20
31.251659375000003
30
0
0
VERTEX
8
0
10
90.338678125
20
31.050587500000002
30
0
0
VERTEX
8
0
10
90.5627875
20
30.826478125
30
0
0
VERTEX
8
0
10
90.76385937500001
20
30.581475
30
0
0
VERTEX
8
0
10
90.9399375
20
30.317953125000003
30
0
0
VERTEX
8
0
10
91.089353125
20
30.038415625000003
30
0
0
VERTEX
8
0
10
91.21064375
20
29.745590625000002
30
0
0
VERTEX
8
0
10
91.30264687500001
20
29.442300000000003
30
0
0
VERTEX
8
0
10
91.36448125000001
20
29.1314375
30
0
0
VERTEX
8
0
10
91.381134375
20
28.962343750000002
30
0
0
SEQEND
0
POLYLINE
66
1
8
1_copper
10
0.0
20
0.0
30
0.0
70
1
0
VERTEX
8
0
10
102.9161625
20
28.962343750000002
30
0
0
VERTEX
8
0
10
102.932815625
20
29.1314375
30
0
0
VERTEX
8
0
10
102.99465000000001
20
29.442300000000003
30
0
0
VERTEX
8
0
10
103.086653125
20
29.745590625000002
30
0
0
VERTEX
8
0
10
103.20794375
20
30.038415625000003
30
0
0
VERTEX
8
0
10
103.357359375
20
30.317953125000003
30
0
0
VERTEX
8
0
10
103.5334375
20
30.581475
30
0
0
VERTEX
8
0
10
103.734509375
20
30.826478125
30
0
0
VERTEX
8
0
10
103.95861875
20
31.050587500000002
30
0
0
VERTEX
8
0
10
104.20362187500001
20
31.251659375000003
30
0
0
VERTEX
8
0
10
104.46714375
20
31.427737500000003
30
0
0
VERTEX
8
0
10
104.74668125000001
20
31.577153125000002
30
0
0
VERTEX
8
0
10
105.03950625
20
31.698443750000003
30
0
0
VERTEX
8
0
10
105.342796875
20
31.790446875
30
0
0
VERTEX
8
0
10
105.653659375
20
31.85228125
30
0
0
VERTEX
8
0
10
105.82275
20
31.868934375000002
30
0
0
VERTEX
8
0
10
105.82275
20
28.962343750000002
30
0
0
SEQEND
0
POLYLINE
66
1
8
1_copper
10
0.0
20
0.0
30
0.0
70
1
0
VERTEX
8
0
10
106.43234375
20
28.962343750000002
30
0
0
VERTEX
8
0
10
106.43234375
20
31.868934375000002
30
0
0
VERTEX
8
0
10
106.6014375
20
31.85228125
30
0
0
VERTEX
8
0
10
106.9123
20
31.790446875
30
0
0
VERTEX
8
0
10
107.215590625
20
31.698443750000003
30
0
0
VERTEX
8
0
10
107.50841562500001
20
31.577153125000002
30
0
0
VERTEX
8
0
10
107.787953125
20
31.427737500000003
30
0
0
VERTEX
8
0
10
108.05147500000001
20
31.251659375000003
30
0
0
VERTEX
8
0
10
108.29647812500001
20
31.050587500000002
30
0
0
VERTEX
8
0
10
108.5205875
20
30.826478125
30
0
0
VERTEX
8
0
10
108.721659375
20
30.581475
30
0
0
VERTEX
8
0
10
108.8977375
20
30.317953125000003
30
0
0
VERTEX
8
0
10
109.04715312500001
20
30.038415625000003
30
0
0
VERTEX
8
0
10
109.16844375000001
20
29.745590625000002
30
0
0
VERTEX
8
0
10
109.260446875
20
29.442300000000003
30
0
0
VERTEX
8
0
10
109.32228125
20
29.1314375
30
0
0
VERTEX
8
0
10
109.33893437500001
20
28.962343750000002
30
0
0
SEQEND
0
POLYLINE
66
1
8
1_copper
10
0.0
20
0.0
30
0.0
70
1
0
VERTEX
8
0
10
135.1233625
20
28.962343750000002
30
0
0
VERTEX
8
0
10
135.14001562500002
20
29.1314375
30
0
0
VERTEX
8
0
10
135.20185
20
29.442300000000003
30
0
0
VERTEX
8
0
10
135.293853125
20
29.745590625000002
30
0
0
VERTEX
8
0
10
135.41514375
20
30.038415625000003
30
0
0
VERTEX
8
0
10
135.56455937500002
20
30.317953125000003
30
0
0
VERTEX
8
0
10
135.74063750000002
20
30.581475
30
0
0
VERTEX
8
0
10
135.94170937500002
20
30.826478125
30
0
0
VERTEX
8
0
10
136.16581875
20
31.050587500000002
30
0
0
VERTEX
8
0
10
136.410821875
20
31.251659375000003
30
0
0
VERTEX
8
0
10
136.67434375000002
20
31.427737500000003
30
0
0
VERTEX
8
0
10
136.95388125
20
31.577153125000002
30
0
0
VERTEX
8
0
10
137.24670625000002
20
31.698443750000003
30
0
0
VERTEX
8
0
10
137.549996875
20
31.790446875
30
0
0
VERTEX
8
0
10
137.86085937500002
20
31.85228125
30
0
0
VERTEX
8
0
10
138.02995
20
31.868934375000002
30
0
0
VERTEX
8
0
10
138.02995
20
28.962343750000002
30
0
0
SEQEND
0
POLYLINE
66
1
8
1_copper
10
0.0
20
0.0
30
0.0
70
1
0
VERTEX
8
0
10
138.63954375
20
28.962343750000002
30
0
0
VERTEX
8
0
10
138.63954375
20
31.868934375000002
30
0
0
VERTEX
8
0
10
138.8086375
20
31.85228125
30
0
0
VERTEX
8
0
10
139.11950000000002
20
31.790446875
30
0
0
VERTEX
8
0
10
139.422790625
20
31.698443750000003
30
0
0
VERTEX
8
0
10
139.715615625
20
31.577153125000002
30
0
0
VERTEX
8
0
10
139.995153125
20
31.427737500000003
30
0
0
VERTEX
8
0
10
140.258675
20
31.251659375000003
30
0
0
VERTEX
8
0
10
140.503678125
20
31.050587500000002
30
0
0
VERTEX
8
0
10
140.7277875
20
30.826478125
30
0
0
VERTEX
8
0
10
140.928859375
20
30.581475
30
0
0
VERTEX
8
0
10
141.1049375
20
30.317953125000003
30
0
0
VERTEX
8
0
10
141.254353125
20
30.038415625000003
30
0
0
VERTEX
8
0
10
141.37564375
20
29.745590625000002
30
0
0
VERTEX
8
0
10
141.467646875
20
29.442300000000003
30
0
0
VERTEX
8
0
10
141.52948125
20
29.1314375
30
0
0
VERTEX
8
0
10
141.546134375
20
28.962343750000002
30
0
0
SEQEND
0
POLYLINE
66
1
8
1_copper
10
0.0
20
0.0
30
0.0
70
1
0
VERTEX
8
0
10
153.0811625
20
28.962343750000002
30
0
0
VERTEX
8
0
10
153.097815625
20
29.1314375
30
0
0
VERTEX
8
0
10
153.15965
20
29.442300000000003
30
0
0
VERTEX
8
0
10
153.25165312500002
20
29.745590625000002
30
0
0
VERTEX
8
0
10
153.37294375000002
20
30.038415625000003
30
0
0
VERTEX
8
0
10
153.522359375
20
30.317953125000003
30
0
0
VERTEX
8
0
10
153.6984375
20
30.581475
30
0
0
VERTEX
8
0
10
153.899509375
20
30.826478125
30
0
0
VERTEX
8
0
10
154.12361875000002
20
31.050587500000002
30
0
0
VERTEX
8
0
10
154.368621875
20
31.251659375000003
30
0
0
VERTEX
8
0
10
154.63214375
20
31.427737500000003
30
0
0
VERTEX
8
0
10
154.91168125000002
20
31.577153125000002
30
0
0
VERTEX
8
0
10
155.20450625
20
31.698443750000003
30
0
0
VERTEX
8
0
10
155.507796875
20
31.790446875
30
0
0
VERTEX
8
0
10
155.818659375
20
31.85228125
30
0
0
VERTEX
8
0
10
155.98775
20
31.868934375000002
30
0
0
VERTEX
8
0
10
155.98775
20
28.962343750000002
30
0
0
SEQEND
0
POLYLINE
66
1
8
1_copper
10
0.0
20
0.0
30
0.0
70
1
0
VERTEX
8
0
10
156.59734375000002
20
28.962343750000002
30
0
0
VERTEX
8
0
10
156.59734375000002
20
31.868934375000002
30
0
0
VERTEX
8
0
10
156.7664375
20
31.85228125
30
0
0
VERTEX
8
0
10
157.0773
20
31.790446875
30
0
0
VERTEX
8
0
10
157.380590625
20
31.698443750000003
30
0
0
VERTEX
8
0
10
157.67341562500002
20
31.577153125000002
30
0
0
VERTEX
8
0
10
157.952953125
20
31.427737500000003
30
0
0
VERTEX
8
0
10
158.216475
20
31.251659375000003
30
0
0
VERTEX
8
0
10
158.461478125
20
31.050587500000002
30
0
0
VERTEX
8
0
10
158.6855875
20
30.826478125
30
0
0
VERTEX
8
0
10
158.886659375
20
30.581475
30
0
0
VERTEX
8
0
10
159.0627375
20
30.317953125000003
30
0
0
VERTEX
8
0
10
159.21215312500001
20
30.038415625000003
30
0
0
VERTEX
8
0
10
159.33344375000001
20
29.745590625000002
30
0
0
VERTEX
8
0
10
159.425446875
20
29.442300000000003
30
0
0
VERTEX
8
0
10
159.48728125
20
29.1314375
30
0
0
VERTEX
8
0
10
159.503934375
20
28.962343750000002
30
0
0
SEQEND
0
POLYLINE
66
1
8
1_copper
10
0.0
20
0.0
30
0.0
70
1
0
VERTEX
8
0
10
71.8011625
20
28.962343750000002
30
0
0
VERTEX
8
0
10
71.81781562500001
20
29.1314375
30
0
0
VERTEX
8
0
10
71.87965
20
29.442300000000003
30
0
0
VERTEX
8
0
10
71.971653125
20
29.745590625000002
30
0
0
VERTEX
8
0
10
72.09294375
20
30.038415625000003
30
0
0
VERTEX
8
0
10
72.242359375
20
30.317953125000003
30
0
0
VERTEX
8
0
10
72.41843750000001
20
30.581475
30
0
0
VERTEX
8
0
10
72.619509375
20
30.826478125
30
0
0
VERTEX
8
0
10
72.84361875
20
31.050587500000002
30
0
0
VERTEX
8
0
10
73.088621875
20
31.251659375000003
30
0
0
VERTEX
8
0
10
73.35214375000001
20
31.427737500000003
30
0
0
VERTEX
8
0
10
73.63168125
20
31.577153125000002
30
0
0
VERTEX
8
0
10
73.92450625000001
20
31.698443750000003
30
0
0
VERTEX
8
0
10
74.22779687500001
20
31.790446875
30
0
0
VERTEX
8
0
10
74.53865937500001
20
31.85228125
30
0
0
VERTEX
8
0
10
74.70775
20
31.868934375000002
30
0
0
VERTEX
8
0
10
74.70775
20
28.962343750000002
30
0
0
SEQEND
0
POLYLINE
66
1
8
1_copper
10
0.0
20
0.0
30
0.0
70
1
0
VERTEX
8
0
10
3.6783625
20
28.962343750000002
30
0
0
VERTEX
8
0
10
3.6950156250000004
20
29.1314375
30
0
0
VERTEX
8
0
10
3.75685
20
29.442300000000003
30
0
0
VERTEX
8
0
10
3.848853125
20
29.745590625000002
30
0
0
VERTEX
8
0
10
3.97014375
20
30.038415625000003
30
0
0
VERTEX
8
0
10
4.119559375000001
20
30.317953125000003
30
0
0
VERTEX
8
0
10
4.2956375
20
30.581475
30
0
0
VERTEX
8
0
10
4.496709375
20
30.826478125
30
0
0
VERTEX
8
0
10
4.72081875
20
31.050587500000002
30
0
0
VERTEX
8
0
10
4.9658218750000005
20
31.251659375000003
30
0
0
VERTEX
8
0
10
5.22934375
20
31.427737500000003
30
0
0
VERTEX
8
0
10
5.50888125
20
31.577153125000002
30
0
0
VERTEX
8
0
10
5.8017062500000005
20
31.698443750000003
30
0
0
VERTEX
8
0
10
6.104996875
20
31.790446875
30
0
0
VERTEX
8
0
10
6.415859375
20
31.85228125
30
0
0
VERTEX
8
0
10
6.58495
20
31.868934375000002
30
0
0
VERTEX
8
0
10
6.58495
20
28.962343750000002
30
0
0
SEQEND
0
POLYLINE
66
1
8
1_copper
10
0.0
20
0.0
30
0.0
70
1
0
VERTEX
8
0
10
36.1696
20
30.841453125
30
0
0
VERTEX
8
0
10
36.1696
20
30.84145625
30
0
0
VERTEX
8
0
10
36.556456250000004
20
30.454600000000003
30
0
0
VERTEX
8
0
10
36.556453125000004
20
30.454600000000003
30
0
0
SEQEND
0
POLYLINE
66
1
8
1_copper
10
0.0
20
0.0
30
0.0
70
1
0
VERTEX
8
0
10
132.0546
20
30.841453125
30
0
0
VERTEX
8
0
10
132.0546
20
30.84145625
30
0
0
VERTEX
8
0
10
132.44145625000002
20
30.454600000000003
30
0
0
VERTEX
8
0
10
132.441453125
20
30.454600000000003
30
0
0
SEQEND
0
POLYLINE
66
1
8
1_copper
10
0.0
20
0.0
30
0.0
70
1
0
VERTEX
8
0
10
24.847534375000002
20
28.657534375
30
0
0
VERTEX
8
0
10
24.847534375000002
20
28.6575625
30
0
0
VERTEX
8
0
10
24.847562500000002
20
28.6575625
30
0
0
VERTEX
8
0
10
24.847562500000002
20
28.657534375
30
0
0
SEQEND
0
POLYLINE
66
1
8
1_copper
10
0.0
20
0.0
30
0.0
70
1
0
VERTEX
8
0
10
6.889734375000001
20
28.657534375
30
0
0
VERTEX
8
0
10
6.889734375000001
20
28.6575625
30
0
0
VERTEX
8
0
10
6.889762500000001
20
28.6575625
30
0
0
VERTEX
8
0
10
6.889762500000001
20
28.657534375
30
0
0
SEQEND
0
POLYLINE
66
1
8
1_copper
10
0.0
20
0.0
30
0.0
70
1
0
VERTEX
8
0
10
156.292534375
20
28.657534375
30
0
0
VERTEX
8
0
10
156.292534375
20
28.6575625
30
0
0
VERTEX
8
0
10
156.2925625
20
28.6575625
30
0
0
VERTEX
8
0
10
156.2925625
20
28.657534375
30
0
0
SEQEND
0
POLYLINE
66
1
8
1_copper
10
0.0
20
0.0
30
0.0
70
1
0
VERTEX
8
0
10
138.334734375
20
28.657534375
30
0
0
VERTEX
8
0
10
138.334734375
20
28.6575625
30
0
0
VERTEX
8
0
10
138.3347625
20
28.6575625
30
0
0
VERTEX
8
0
10
138.3347625
20
28.657534375
30
0
0
SEQEND
0
POLYLINE
66
1
8
1_copper
10
0.0
20
0.0
30
0.0
70
1
0
VERTEX
8
0
10
106.12753437500001
20
28.657534375
30
0
0
VERTEX
8
0
10
106.12753437500001
20
28.6575625
30
0
0
VERTEX
8
0
10
106.12756250000001
20
28.6575625
30
0
0
VERTEX
8
0
10
106.12756250000001
20
28.657534375
30
0
0
SEQEND
0
POLYLINE
66
1
8
1_copper
10
0.0
20
0.0
30
0.0
70
1
0
VERTEX
8
0
10
57.054734375
20
28.657534375
30
0
0
VERTEX
8
0
10
57.054734375
20
28.6575625
30
0
0
VERTEX
8
0
10
57.0547625
20
28.6575625
30
0
0
VERTEX
8
0
10
57.0547625
20
28.657534375
30
0
0
SEQEND
0
POLYLINE
66
1
8
1_copper
10
0.0
20
0.0
30
0.0
70
1
0
VERTEX
8
0
10
75.012534375
20
28.657534375
30
0
0
VERTEX
8
0
10
75.012534375
20
28.6575625
30
0
0
VERTEX
8
0
10
75.0125625
20
28.6575625
30
0
0
VERTEX
8
0
10
75.0125625
20
28.657534375
30
0
0
SEQEND
0
POLYLINE
66
1
8
1_copper
10
0.0
20
0.0
30
0.0
70
1
0
VERTEX
8
0
10
88.169734375
20
28.657534375
30
0
0
VERTEX
8
0
10
88.169734375
20
28.6575625
30
0
0
VERTEX
8
0
10
88.1697625
20
28.6575625
30
0
0
VERTEX
8
0
10
88.1697625
20
28.657534375
30
0
0
SEQEND
0
POLYLINE
66
1
8
1_copper
10
0.0
20
0.0
30
0.0
70
1
0
VERTEX
8
0
10
106.43234375
20
28.35275
30
0
0
VERTEX
8
0
10
109.33893437500001
20
28.35275
30
0
0
VERTEX
8
0
10
109.32228125
20
28.183659375
30
0
0
VERTEX
8
0
10
109.260446875
20
27.872796875000002
30
0
0
VERTEX
8
0
10
109.16844375000001
20
27.56950625
30
0
0
VERTEX
8
0
10
109.04715312500001
20
27.276681250000003
30
0
0
VERTEX
8
0
10
108.8977375
20
26.997143750000003
30
0
0
VERTEX
8
0
10
108.721659375
20
26.733621875
30
0
0
VERTEX
8
0
10
108.5205875
20
26.48861875
30
0
0
VERTEX
8
0
10
108.29647812500001
20
26.264509375000003
30
0
0
VERTEX
8
0
10
108.05147500000001
20
26.063437500000003
30
0
0
VERTEX
8
0
10
107.787953125
20
25.887359375000003
30
0
0
VERTEX
8
0
10
107.50841562500001
20
25.737943750000003
30
0
0
VERTEX
8
0
10
107.215590625
20
25.616653125000003
30
0
0
VERTEX
8
0
10
106.9123
20
25.52465
30
0
0
VERTEX
8
0
10
106.6014375
20
25.462815625
30
0
0
VERTEX
8
0
10
106.43234375
20
25.4461625
30
0
0
SEQEND
0
POLYLINE
66
1
8
1_copper
10
0.0
20
0.0
30
0.0
70
1
0
VERTEX
8
0
10
105.653659375
20
25.462815625
30
0
0
VERTEX
8
0
10
105.342796875
20
25.52465
30
0
0
VERTEX
8
0
10
105.03950625
20
25.616653125000003
30
0
0
VERTEX
8
0
10
104.74668125000001
20
25.737943750000003
30
0
0
VERTEX
8
0
10
104.46714375
20
25.887359375000003
30
0
0
VERTEX
8
0
10
104.20362187500001
20
26.063437500000003
30
0
0
VERTEX
8
0
10
103.95861875
20
26.264509375000003
30
0
0
VERTEX
8
0
10
103.734509375
20
26.48861875
30
0
0
VERTEX
8
0
10
103.5334375
20
26.733621875
30
0
0
VERTEX
8
0
10
103.357359375
20
26.997143750000003
30
0
0
VERTEX
8
0
10
103.20794375
20
27.276681250000003
30
0
0
VERTEX
8
0
10
103.086653125
20
27.56950625
30
0
0
VERTEX
8
0
10
102.99465000000001
20
27.872796875000002
30
0
0
VERTEX
8
0
10
102.932815625
20
28.183659375
30
0
0
VERTEX
8
0
10
102.9161625
20
28.35275
30
0
0
VERTEX
8
0
10
105.82275
20
28.35275
30
0
0
VERTEX
8
0
10
105.82275
20
25.4461625
30
0
0
SEQEND
0
POLYLINE
66
1
8
1_copper
10
0.0
20
0.0
30
0.0
70
1
0
VERTEX
8
0
10
88.47454375000001
20
28.35275
30
0
0
VERTEX
8
0
10
91.381134375
20
28.35275
30
0
0
VERTEX
8
0
10
91.36448125000001
20
28.183659375
30
0
0
VERTEX
8
0
10
91.30264687500001
20
27.872796875000002
30
0
0
VERTEX
8
0
10
91.21064375
20
27.56950625
30
0
0
VERTEX
8
0
10
91.089353125
20
27.276681250000003
30
0
0
VERTEX
8
0
10
90.9399375
20
26.997143750000003
30
0
0
VERTEX
8
0
10
90.76385937500001
20
26.733621875
30
0
0
VERTEX
8
0
10
90.5627875
20
26.48861875
30
0
0
VERTEX
8
0
10
90.338678125
20
26.264509375000003
30
0
0
VERTEX
8
0
10
90.093675
20
26.063437500000003
30
0
0
VERTEX
8
0
10
89.83015312500001
20
25.887359375000003
30
0
0
VERTEX
8
0
10
89.550615625
20
25.737943750000003
30
0
0
VERTEX
8
0
10
89.257790625
20
25.616653125000003
30
0
0
VERTEX
8
0
10
88.95450000000001
20
25.52465
30
0
0
VERTEX
8
0
10
88.64363750000001
20
25.462815625
30
0
0
VERTEX
8
0
10
88.47454375000001
20
25.4461625
30
0
0
SEQEND
0
POLYLINE
66
1
8
1_copper
10
0.0
20
0.0
30
0.0
70
1
0
VERTEX
8
0
10
87.695859375
20
25.462815625
30
0
0
VERTEX
8
0
10
87.384996875
20
25.52465
30
0
0
VERTEX
8
0
10
87.08170625000001
20
25.616653125000003
30
0
0
VERTEX
8
0
10
86.78888125
20
25.737943750000003
30
0
0
VERTEX
8
0
10
86.50934375
20
25.887359375000003
30
0
0
VERTEX
8
0
10
86.245821875
20
26.063437500000003
30
0
0
VERTEX
8
0
10
86.00081875000001
20
26.264509375000003
30
0
0
VERTEX
8
0
10
85.77670937500001
20
26.48861875
30
0
0
VERTEX
8
0
10
85.5756375
20
26.733621875
30
0
0
VERTEX
8
0
10
85.39955937500001
20
26.997143750000003
30
0
0
VERTEX
8
0
10
85.25014375
20
27.276681250000003
30
0
0
VERTEX
8
0
10
85.128853125
20
27.56950625
30
0
0
VERTEX
8
0
10
85.03685
20
27.872796875000002
30
0
0
VERTEX
8
0
10
84.975015625
20
28.183659375
30
0
0
VERTEX
8
0
10
84.9583625
20
28.35275
30
0
0
VERTEX
8
0
10
87.86495000000001
20
28.35275
30
0
0
VERTEX
8
0
10
87.86495000000001
20
25.4461625
30
0
0
SEQEND
0
POLYLINE
66
1
8
1_copper
10
0.0
20
0.0
30
0.0
70
1
0
VERTEX
8
0
10
75.31734375
20
28.35275
30
0
0
VERTEX
8
0
10
78.223934375
20
28.35275
30
0
0
VERTEX
8
0
10
78.20728125000001
20
28.183659375
30
0
0
VERTEX
8
0
10
78.145446875
20
27.872796875000002
30
0
0
VERTEX
8
0
10
78.05344375
20
27.56950625
30
0
0
VERTEX
8
0
10
77.932153125
20
27.276681250000003
30
0
0
VERTEX
8
0
10
77.78273750000001
20
26.997143750000003
30
0
0
VERTEX
8
0
10
77.606659375
20
26.733621875
30
0
0
VERTEX
8
0
10
77.40558750000001
20
26.48861875
30
0
0
VERTEX
8
0
10
77.181478125
20
26.264509375000003
30
0
0
VERTEX
8
0
10
76.936475
20
26.063437500000003
30
0
0
VERTEX
8
0
10
76.672953125
20
25.887359375000003
30
0
0
VERTEX
8
0
10
76.393415625
20
25.737943750000003
30
0
0
VERTEX
8
0
10
76.10059062500001
20
25.616653125000003
30
0
0
VERTEX
8
0
10
75.7973
20
25.52465
30
0
0
VERTEX
8
0
10
75.48643750000001
20
25.462815625
30
0
0
VERTEX
8
0
10
75.31734375
20
25.4461625
30
0
0
SEQEND
0
POLYLINE
66
1
8
1_copper
10
0.0
20
0.0
30
0.0
70
1
0
VERTEX
8
0
10
74.53865937500001
20
25.462815625
30
0
0
VERTEX
8
0
10
74.22779687500001
20
25.52465
30
0
0
VERTEX
8
0
10
73.92450625000001
20
25.616653125000003
30
0
0
VERTEX
8
0
10
73.63168125
20
25.737943750000003
30
0
0
VERTEX
8
0
10
73.35214375000001
20
25.887359375000003
30
0
0
VERTEX
8
0
10
73.088621875
20
26.063437500000003
30
0
0
VERTEX
8
0
10
72.84361875
20
26.264509375000003
30
0
0
VERTEX
8
0
10
72.619509375
20
26.48861875
30
0
0
VERTEX
8
0
10
72.41843750000001
20
26.733621875
30
0
0
VERTEX
8
0
10
72.242359375
20
26.997143750000003
30
0
0
VERTEX
8
0
10
72.09294375
20
27.276681250000003
30
0
0
VERTEX
8
0
10
71.971653125
20
27.56950625
30
0
0
VERTEX
8
0
10
71.87965
20
27.872796875000002
30
0
0
VERTEX
8
0
10
71.81781562500001
20
28.183659375
30
0
0
VERTEX
8
0
10
71.8011625
20
28.35275
30
0
0
VERTEX
8
0
10
74.70775
20
28.35275
30
0
0
VERTEX
8
0
10
74.70775
20
25.4461625
30
0
0
SEQEND
0
POLYLINE
66
1
8
1_copper
10
0.0
20
0.0
30
0.0
70
1
0
VERTEX
8
0
10
56.580859375
20
25.462815625
30
0
0
VERTEX
8
0
10
56.269996875000004
20
25.52465
30
0
0
VERTEX
8
0
10
55.96670625
20
25.616653125000003
30
0
0
VERTEX
8
0
10
55.67388125
20
25.737943750000003
30
0
0
VERTEX
8
0
10
55.394343750000004
20
25.887359375000003
30
0
0
VERTEX
8
0
10
55.130821875
20
26.063437500000003
30
0
0
VERTEX
8
0
10
54.885818750000006
20
26.264509375000003
30
0
0
VERTEX
8
0
10
54.661709375
20
26.48861875
30
0
0
VERTEX
8
0
10
54.460637500000004
20
26.733621875
30
0
0
VERTEX
8
0
10
54.284559375
20
26.997143750000003
30
0
0
VERTEX
8
0
10
54.135143750000005
20
27.276681250000003
30
0
0
VERTEX
8
0
10
54.013853125000004
20
27.56950625
30
0
0
VERTEX
8
0
10
53.92185
20
27.872796875000002
30
0
0
VERTEX
8
0
10
53.860015625
20
28.183659375
30
0
0
VERTEX
8
0
10
53.843362500000005
20
28.35275
30
0
0
VERTEX
8
0
10
56.749950000000005
20
28.35275
30
0
0
VERTEX
8
0
10
56.749950000000005
20
25.4461625
30
0
0
SEQEND
0
POLYLINE
66
1
8
1_copper
10
0.0
20
0.0
30
0.0
70
1
0
VERTEX
8
0
10
25.15234375
20
28.35275
30
0
0
VERTEX
8
0
10
28.058934375
20
28.35275
30
0
0
VERTEX
8
0
10
28.042281250000002
20
28.183659375
30
0
0
VERTEX
8
0
10
27.980446875000002
20
27.872796875000002
30
0
0
VERTEX
8
0
10
27.88844375
20
27.56950625
30
0
0
VERTEX
8
0
10
27.767153125
20
27.276681250000003
30
0
0
VERTEX
8
0
10
27.6177375
20
26.997143750000003
30
0
0
VERTEX
8
0
10
27.441659375
20
26.733621875
30
0
0
VERTEX
8
0
10
27.2405875
20
26.48861875
30
0
0
VERTEX
8
0
10
27.016478125000003
20
26.264509375000003
30
0
0
VERTEX
8
0
10
26.771475000000002
20
26.063437500000003
30
0
0
VERTEX
8
0
10
26.507953125
20
25.887359375000003
30
0
0
VERTEX
8
0
10
26.228415625
20
25.737943750000003
30
0
0
VERTEX
8
0
10
25.935590625
20
25.616653125000003
30
0
0
VERTEX
8
0
10
25.6323
20
25.52465
30
0
0
VERTEX
8
0
10
25.321437500000002
20
25.462815625
30
0
0
VERTEX
8
0
10
25.15234375
20
25.4461625
30
0
0
SEQEND
0
POLYLINE
66
1
8
1_copper
10
0.0
20
0.0
30
0.0
70
1
0
VERTEX
8
0
10
24.373659375000003
20
25.462815625
30
0
0
VERTEX
8
0
10
24.062796875
20
25.52465
30
0
0
VERTEX
8
0
10
23.75950625
20
25.616653125000003
30
0
0
VERTEX
8
0
10
23.46668125
20
25.737943750000003
30
0
0
VERTEX
8
0
10
23.18714375
20
25.887359375000003
30
0
0
VERTEX
8
0
10
22.923621875000002
20
26.063437500000003
30
0
0
VERTEX
8
0
10
22.678618750000002
20
26.264509375000003
30
0
0
VERTEX
8
0
10
22.454509375
20
26.48861875
30
0
0
VERTEX
8
0
10
22.2534375
20
26.733621875
30
0
0
VERTEX
8
0
10
22.077359375
20
26.997143750000003
30
0
0
VERTEX
8
0
10
21.92794375
20
27.276681250000003
30
0
0
VERTEX
8
0
10
21.806653125
20
27.56950625
30
0
0
VERTEX
8
0
10
21.714650000000002
20
27.872796875000002
30
0
0
VERTEX
8
0
10
21.652815625000002
20
28.183659375
30
0
0
VERTEX
8
0
10
21.6361625
20
28.35275
30
0
0
VERTEX
8
0
10
24.54275
20
28.35275
30
0
0
VERTEX
8
0
10
24.54275
20
25.4461625
30
0
0
SEQEND
0
POLYLINE
66
1
8
1_copper
10
0.0
20
0.0
30
0.0
70
1
0
VERTEX
8
0
10
7.19454375
20
28.35275
30
0
0
VERTEX
8
0
10
10.101134375
20
28.35275
30
0
0
VERTEX
8
0
10
10.08448125
20
28.183659375
30
0
0
VERTEX
8
0
10
10.022646875000001
20
27.872796875000002
30
0
0
VERTEX
8
0
10
9.93064375
20
27.56950625
30
0
0
VERTEX
8
0
10
9.809353125000001
20
27.276681250000003
30
0
0
VERTEX
8
0
10
9.6599375
20
26.997143750000003
30
0
0
VERTEX
8
0
10
9.483859375
20
26.733621875
30
0
0
VERTEX
8
0
10
9.282787500000001
20
26.48861875
30
0
0
VERTEX
8
0
10
9.058678125
20
26.264509375000003
30
0
0
VERTEX
8
0
10
8.813675
20
26.063437500000003
30
0
0
VERTEX
8
0
10
8.550153125
20
25.887359375000003
30
0
0
VERTEX
8
0
10
8.270615625
20
25.737943750000003
30
0
0
VERTEX
8
0
10
7.977790625000001
20
25.616653125000003
30
0
0
VERTEX
8
0
10
7.6745
20
25.52465
30
0
0
VERTEX
8
0
10
7.3636375
20
25.462815625
30
0
0
VERTEX
8
0
10
7.19454375
20
25.4461625
30
0
0
SEQEND
0
POLYLINE
66
1
8
1_copper
10
0.0
20
0.0
30
0.0
70
1
0
VERTEX
8
0
10
6.415859375
20
25.462815625
30
0
0
VERTEX
8
0
10
6.104996875
20
25.52465
30
0
0
VERTEX
8
0
10
5.8017062500000005
20
25.616653125000003
30
0
0
VERTEX
8
0
10
5.50888125
20
25.737943750000003
30
0
0
VERTEX
8
0
10
5.22934375
20
25.887359375000003
30
0
0
VERTEX
8
0
10
4.9658218750000005
20
26.063437500000003
30
0
0
VERTEX
8
0
10
4.72081875
20
26.264509375000003
30
0
0
VERTEX
8
0
10
4.496709375
20
26.48861875
30
0
0
VERTEX
8
0
10
4.2956375
20
26.733621875
30
0
0
VERTEX
8
0
10
4.119559375000001
20
26.997143750000003
30
0
0
VERTEX
8
0
10
3.97014375
20
27.276681250000003
30
0
0
VERTEX
8
0
10
3.848853125
20
27.56950625
30
0
0
VERTEX
8
0
10
3.75685
20
27.872796875000002
30
0
0
VERTEX
8
0
10
3.6950156250000004
20
28.183659375
30
0
0
VERTEX
8
0
10
3.6783625
20
28.35275
30
0
0
VERTEX
8
0
10
6.58495
20
28.35275
30
0
0
VERTEX
8
0
10
6.58495
20
25.4461625
30
0
0
SEQEND
0
POLYLINE
66
1
8
1_copper
10
0.0
20
0.0
30
0.0
70
1
0
VERTEX
8
0
10
57.35954375
20
28.35275
30
0
0
VERTEX
8
0
10
60.266134375
20
28.35275
30
0
0
VERTEX
8
0
10
60.24948125
20
28.183659375
30
0
0
VERTEX
8
0
10
60.187646875000006
20
27.872796875000002
30
0
0
VERTEX
8
0
10
60.09564375
20
27.56950625
30
0
0
VERTEX
8
0
10
59.974353125
20
27.276681250000003
30
0
0
VERTEX
8
0
10
59.824937500000004
20
26.997143750000003
30
0
0
VERTEX
8
0
10
59.648859375
20
26.733621875
30
0
0
VERTEX
8
0
10
59.447787500000004
20
26.48861875
30
0
0
VERTEX
8
0
10
59.223678125000006
20
26.264509375000003
30
0
0
VERTEX
8
0
10
58.978675
20
26.063437500000003
30
0
0
VERTEX
8
0
10
58.715153125
20
25.887359375000003
30
0
0
VERTEX
8
0
10
58.435615625000004
20
25.737943750000003
30
0
0
VERTEX
8
0
10
58.142790625
20
25.616653125000003
30
0
0
VERTEX
8
0
10
57.8395
20
25.52465
30
0
0
VERTEX
8
0
10
57.5286375
20
25.462815625
30
0
0
VERTEX
8
0
10
57.35954375
20
25.4461625
30
0
0
SEQEND
0
POLYLINE
66
1
8
1_copper
10
0.0
20
0.0
30
0.0
70
1
0
VERTEX
8
0
10
156.59734375000002
20
28.35275
30
0
0
VERTEX
8
0
10
159.503934375
20
28.35275
30
0
0
VERTEX
8
0
10
159.48728125
20
28.183659375
30
0
0
VERTEX
8
0
10
159.425446875
20
27.872796875000002
30
0
0
VERTEX
8
0
10
159.33344375000001
20
27.56950625
30
0
0
VERTEX
8
0
10
159.21215312500001
20
27.276681250000003
30
0
0
VERTEX
8
0
10
159.0627375
20
26.997143750000003
30
0
0
VERTEX
8
0
10
158.886659375
20
26.733621875
30
0
0
VERTEX
8
0
10
158.6855875
20
26.48861875
30
0
0
VERTEX
8
0
10
158.461478125
20
26.264509375000003
30
0
0
VERTEX
8
0
10
158.216475
20
26.063437500000003
30
0
0
VERTEX
8
0
10
157.952953125
20
25.887359375000003
30
0
0
VERTEX
8
0
10
157.67341562500002
20
25.737943750000003
30
0
0
VERTEX
8
0
10
157.380590625
20
25.616653125000003
30
0
0
VERTEX
8
0
10
157.0773
20
25.52465
30
0
0
VERTEX
8
0
10
156.7664375
20
25.462815625
30
0
0
VERTEX
8
0
10
156.59734375000002
20
25.4461625
30
0
0
SEQEND
0
POLYLINE
66
1
8
1_copper
10
0.0
20
0.0
30
0.0
70
1
0
VERTEX
8
0
10
155.818659375
20
25.462815625
30
0
0
VERTEX
8
0
10
155.507796875
20
25.52465
30
0
0
VERTEX
8
0
10
155.20450625
20
25.616653125000003
30
0
0
VERTEX
8
0
10
154.91168125000002
20
25.737943750000003
30
0
0
VERTEX
8
0
10
154.63214375
20
25.887359375000003
30
0
0
VERTEX
8
0
10
154.368621875
20
26.063437500000003
30
0
0
VERTEX
8
0
10
154.12361875000002
20
26.264509375000003
30
0
0
VERTEX
8
0
10
153.899509375
20
26.48861875
30
0
0
VERTEX
8
0
10
153.6984375
20
26.733621875
30
0
0
VERTEX
8
0
10
153.522359375
20
26.997143750000003
30
0
0
VERTEX
8
0
10
153.37294375000002
20
27.276681250000003
30
0
0
VERTEX
8
0
10
153.25165312500002
20
27.56950625
30
0
0
VERTEX
8
0
10
153.15965
20
27.872796875000002
30
0
0
VERTEX
8
0
10
153.097815625
20
28.183659375
30
0
0
VERTEX
8
0
10
153.0811625
20
28.35275
30
0
0
VERTEX
8
0
10
155.98775
20
28.35275
30
0
0
VERTEX
8
0
10
155.98775
20
25.4461625
30
0
0
SEQEND
0
POLYLINE
66
1
8
1_copper
10
0.0
20
0.0
30
0.0
70
1
0
VERTEX
8
0
10
138.63954375
20
28.35275
30
0
0
VERTEX
8
0
10
141.546134375
20
28.35275
30
0
0
VERTEX
8
0
10
141.52948125
20
28.183659375
30
0
0
VERTEX
8
0
10
141.467646875
20
27.872796875000002
30
0
0
VERTEX
8
0
10
141.37564375
20
27.56950625
30
0
0
VERTEX
8
0
10
141.254353125
20
27.276681250000003
30
0
0
VERTEX
8
0
10
141.1049375
20
26.997143750000003
30
0
0
VERTEX
8
0
10
140.928859375
20
26.733621875
30
0
0
VERTEX
8
0
10
140.7277875
20
26.48861875
30
0
0
VERTEX
8
0
10
140.503678125
20
26.264509375000003
30
0
0
VERTEX
8
0
10
140.258675
20
26.063437500000003
30
0
0
VERTEX
8
0
10
139.995153125
20
25.887359375000003
30
0
0
VERTEX
8
0
10
139.715615625
20
25.737943750000003
30
0
0
VERTEX
8
0
10
139.422790625
20
25.616653125000003
30
0
0
VERTEX
8
0
10
139.11950000000002
20
25.52465
30
0
0
VERTEX
8
0
10
138.8086375
20
25.462815625
30
0
0
VERTEX
8
0
10
138.63954375
20
25.4461625
30
0
0
SEQEND
0
POLYLINE
66
1
8
1_copper
10
0.0
20
0.0
30
0.0
70
1
0
VERTEX
8
0
10
137.86085937500002
20
25.462815625
30
0
0
VERTEX
8
0
10
137.549996875
20
25.52465
30
0
0
VERTEX
8
0
10
137.24670625000002
20
25.616653125000003
30
0
0
VERTEX
8
0
10
136.95388125
20
25.737943750000003
30
0
0
VERTEX
8
0
10
136.67434375000002
20
25.887359375000003
30
0
0
VERTEX
8
0
10
136.410821875
20
26.063437500000003
30
0
0
VERTEX
8
0
10
136.16581875
20
26.264509375000003
30
0
0
VERTEX
8
0
10
135.94170937500002
20
26.48861875
30
0
0
VERTEX
8
0
10
135.74063750000002
20
26.733621875
30
0
0
VERTEX
8
0
10
135.56455937500002
20
26.997143750000003
30
0
0
VERTEX
8
0
10
135.41514375
20
27.276681250000003
30
0
0
VERTEX
8
0
10
135.293853125
20
27.56950625
30
0
0
VERTEX
8
0
10
135.20185
20
27.872796875000002
30
0
0
VERTEX
8
0
10
135.14001562500002
20
28.183659375
30
0
0
VERTEX
8
0
10
135.1233625
20
28.35275
30
0
0
VERTEX
8
0
10
138.02995
20
28.35275
30
0
0
VERTEX
8
0
10
138.02995
20
25.4461625
30
0
0
SEQEND
0
POLYLINE
66
1
8
1_copper
10
0.0
20
0.0
30
0.0
70
1
0
VERTEX
8
0
10
35.775653125000005
20
4.2418000000000005
30
0
0
VERTEX
8
0
10
35.000796875
20
4.5627562500000005
30
0
0
VERTEX
8
0
10
34.40775625
20
5.155796875
30
0
0
VERTEX
8
0
10
34.086800000000004
20
5.930653125
30
0
0
VERTEX
8
0
10
34.086800000000004
20
17.45445
30
0
0
VERTEX
8
0
10
34.0853875
20
17.468365625
30
0
0
VERTEX
8
0
10
34.08424375
20
17.482246875
30
0
0
VERTEX
8
0
10
34.083778125
20
17.48419375
30
0
0
VERTEX
8
0
10
34.083684375000004
20
17.485115625000002
30
0
0
VERTEX
8
0
10
34.08315
20
17.48681875
30
0
0
VERTEX
8
0
10
34.08060625
20
17.497453125
30
0
0
VERTEX
8
0
10
34.054140625
20
17.587440625
30
0
0
VERTEX
8
0
10
34.085934375
20
17.884434375
30
0
0
VERTEX
8
0
10
34.0859375
20
17.884746875
30
0
0
VERTEX
8
0
10
34.085996875
20
17.885040625000002
30
0
0
VERTEX
8
0
10
34.086800000000004
20
17.90065625
30
0
0
VERTEX
8
0
10
34.086800000000004
20
18.19934375
30
0
0
VERTEX
8
0
10
34.122696875
20
18.286003125
30
0
0
VERTEX
8
0
10
34.12669375
20
18.299328125000002
30
0
0
VERTEX
8
0
10
34.130975
20
18.31266875
30
0
0
VERTEX
8
0
10
34.131290625
20
18.314656250000002
30
0
0
VERTEX
8
0
10
34.131553125
20
18.315528125
30
0
0
VERTEX
8
0
10
34.131709375
20
18.317275000000002
30
0
0
VERTEX
8
0
10
34.133434375
20
18.328109375
30
0
0
VERTEX
8
0
10
34.143415625
20
18.421375
30
0
0
VERTEX
8
0
10
34.286443750000004
20
18.6835875
30
0
0
VERTEX
8
0
10
34.286559375
20
18.6838625
30
0
0
VERTEX
8
0
10
34.2867375
20
18.684125
30
0
0
VERTEX
8
0
10
34.293453125
20
18.69824375
30
0
0
VERTEX
8
0
10
34.40775625
20
18.97419375
30
0
0
VERTEX
8
0
10
34.474081250000005
20
19.04051875
30
0
0
VERTEX
8
0
10
34.482971875000004
20
19.05141875
30
0
0
VERTEX
8
0
10
34.491928125
20
19.061984375
30
0
0
VERTEX
8
0
10
34.492975
20
19.063690625
30
0
0
VERTEX
8
0
10
34.493559375000004
20
19.06440625
30
0
0
VERTEX
8
0
10
34.49438125
20
19.065978125
30
0
0
VERTEX
8
0
10
34.500109375
20
19.07530625
30
0
0
VERTEX
8
0
10
35.10339375
20
20.181325
30
0
0
VERTEX
8
0
10
35.107059375
20
20.19004375
30
0
0
VERTEX
8
0
10
35.1114125
20
20.19848125
30
0
42
0.7202197049095271
0
VERTEX
8
0
10
34.889931250000004
20
20.384
30
0
0
VERTEX
8
0
10
34.888184375
20
20.38313125
30
0
0
VERTEX
8
0
10
34.887290625
20
20.38243125
30
0
0
VERTEX
8
0
10
34.885065625
20
20.381106250000002
30
0
0
VERTEX
8
0
10
30.448484375000003
20
17.4233875
30
0
0
VERTEX
8
0
10
30.442903125
20
17.4187875
30
0
0
VERTEX
8
0
10
30.436865625000003
20
17.414818750000002
30
0
0
VERTEX
8
0
10
30.42525625
20
17.404343750000002
30
0
0
VERTEX
8
0
10
30.36853125
20
17.347618750000002
30
0
0
VERTEX
8
0
10
30.121237500000003
20
17.204843750000002
30
0
0
VERTEX
8
0
10
30.119512500000003
20
17.2036
30
0
0
VERTEX
8
0
10
30.1129
20
17.199665625
30
0
0
VERTEX
8
0
10
29.87530625
20
17.041265625
30
0
0
VERTEX
8
0
10
29.799312500000003
20
17.015559375000002
30
0
42
0.023700005057748528
0
VERTEX
8
0
10
29.785868750000002
20
17.010290625
30
0
0
VERTEX
8
0
10
29.771943750000002
20
17.003178125
30
0
0
VERTEX
8
0
10
29.70245625
20
16.963059375
30
0
0
VERTEX
8
0
10
29.426637500000002
20
16.889153125
30
0
0
VERTEX
8
0
10
29.424646875
20
16.888396875
30
0
0
VERTEX
8
0
10
29.41724375
20
16.886309375
30
0
0
VERTEX
8
0
10
29.146756250000003
20
16.79480625
30
0
0
VERTEX
8
0
10
29.066690625
20
16.78964375
30
0
42
0.023701585169121474
0
VERTEX
8
0
10
29.052340625000003
20
16.78803125
30
0
0
VERTEX
8
0
10
29.03705
20
16.784765625000002
30
0
0
VERTEX
8
0
10
28.959556250000002
20
16.764
30
0
0
VERTEX
8
0
10
28.674000000000003
20
16.764
30
0
0
VERTEX
8
0
10
28.671875
20
16.763784375
30
0
0
VERTEX
8
0
10
28.664190625
20
16.763684375
30
0
0
VERTEX
8
0
10
28.379228125
20
16.745306250000002
30
0
0
VERTEX
8
0
10
28.300559375000002
20
16.761040625
30
0
42
0.023690929210973488
0
VERTEX
8
0
10
28.2862875
20
16.763196875000002
30
0
0
VERTEX
8
0
10
28.270671875
20
16.764
30
0
0
VERTEX
8
0
10
23.24031875
20
16.764
30
0
0
VERTEX
8
0
10
23.230431250000002
20
16.762996875000002
30
0
0
VERTEX
8
0
10
23.220534375
20
16.762709375
30
0
42
0.2745371037916163
0
VERTEX
8
0
10
23.098353125000003
20
16.666478125
30
0
0
VERTEX
8
0
10
23.09743125
20
16.664603125
30
0
0
VERTEX
8
0
10
23.0970875
20
16.663275000000002
30
0
0
VERTEX
8
0
10
23.095896875
20
16.6602625
30
0
0
VERTEX
8
0
10
23.00378125
20
16.38686875
30
0
0
VERTEX
8
0
10
22.128109375
20
14.931493750000001
30
0
0
VERTEX
8
0
10
21.897281250000002
20
14.687812500000001
30
0
0
VERTEX
8
0
10
21.897271875
20
14.687803125
30
0
0
VERTEX
8
0
10
21.897265625
20
14.68779375
30
0
0
VERTEX
8
0
10
21.752925
20
14.535415625
30
0
0
VERTEX
8
0
10
21.752909375
20
14.535403125
30
0
0
VERTEX
8
0
10
21.752896875
20
14.5353875
30
0
0
VERTEX
8
0
10
21.4642
20
14.230612500000001
30
0
0
VERTEX
8
0
10
21.4641875
20
14.230603125
30
0
0
VERTEX
8
0
10
21.464178125
20
14.230590625000001
30
0
0
VERTEX
8
0
10
21.175475000000002
20
13.925809375
30
0
0
VERTEX
8
0
10
21.175465625
20
13.925803125
30
0
0
VERTEX
8
0
10
21.175459375000003
20
13.92579375
30
0
0
VERTEX
8
0
10
21.03111875
20
13.773415625
30
0
0
VERTEX
8
0
10
21.031103125
20
13.773403125000002
30
0
0
VERTEX
8
0
10
21.031090625
20
13.7733875
30
0
0
VERTEX
8
0
10
20.96006875
20
13.698409375
30
0
0
VERTEX
8
0
10
19.55423125
20
12.745225000000001
30
0
0
VERTEX
8
0
10
17.97638125
20
12.116553125000001
30
0
0
VERTEX
8
0
10
16.30023125
20
11.841759375
30
0
0
VERTEX
8
0
10
14.604253125000001
20
11.933715625000001
30
0
0
VERTEX
8
0
10
12.967656250000001
20
12.3881125
30
0
0
VERTEX
8
0
10
11.467018750000001
20
13.1837
30
0
0
VERTEX
8
0
10
10.172475
20
14.28329375
30
0
0
VERTEX
8
0
10
9.144596875000001
20
15.635446875000001
30
0
0
VERTEX
8
0
10
8.431415625
20
17.176959375
30
0
0
VERTEX
8
0
10
8.0662875
20
18.835753125
30
0
0
VERTEX
8
0
10
8.0662875
20
20.53424375
30
0
0
VERTEX
8
0
10
8.431415625
20
22.193037500000003
30
0
0
VERTEX
8
0
10
9.1446
20
23.73455625
30
0
0
VERTEX
8
0
10
10.1724875
20
25.086715625
30
0
0
VERTEX
8
0
10
11.467009375
20
26.18629375
30
0
0
VERTEX
8
0
10
12.96765
20
26.98188125
30
0
0
VERTEX
8
0
10
14.604240625000001
20
27.43628125
30
0
0
VERTEX
8
0
10
16.30023125
20
27.528237500000003
30
0
0
VERTEX
8
0
10
17.97638125
20
27.253443750000002
30
0
0
VERTEX
8
0
10
19.55423125
20
26.624771875
30
0
0
VERTEX
8
0
10
20.96006875
20
25.6715875
30
0
0
VERTEX
8
0
10
22.128109375
20
24.438503125
30
0
0
VERTEX
8
0
10
23.00378125
20
22.983128125
30
0
0
VERTEX
8
0
10
23.095896875
20
22.709734375
30
0
0
VERTEX
8
0
10
23.09999375
20
22.700709375000002
30
0
0
VERTEX
8
0
10
23.103434375000003
20
22.6914
30
0
42
0.2745253864640132
0
VERTEX
8
0
10
23.233634375
20
22.606340625
30
0
0
VERTEX
8
0
10
23.2357125
20
22.606065625
30
0
0
VERTEX
8
0
10
23.237084375000002
20
22.6061625
30
0
0
VERTEX
8
0
10
23.24031875
20
22.605996875000002
30
0
0
VERTEX
8
0
10
27.644446875
20
22.605996875000002
30
0
0
VERTEX
8
0
10
27.65054375
20
22.606615625
30
0
0
VERTEX
8
0
10
27.656653125000002
20
22.6064875
30
0
42
0.10164637263539184
0
VERTEX
8
0
10
27.715546875
20
22.6236
30
0
0
VERTEX
8
0
10
27.728984375
20
22.63159375
30
0
0
VERTEX
8
0
10
34.8946875
20
27.408728125
30
0
0
VERTEX
8
0
10
35.623240625
20
27.655190625000003
30
0
0
VERTEX
8
0
10
36.39076875
20
27.704690625
30
0
0
VERTEX
8
0
10
37.144946875
20
27.553856250000003
30
0
0
VERTEX
8
0
10
37.834384375
20
27.212965625000002
30
0
0
VERTEX
8
0
10
38.4121
20
26.705250000000003
30
0
0
VERTEX
8
0
10
38.54346875
20
26.508196875000003
30
0
0
VERTEX
8
0
10
38.550284375000004
20
26.499928125
30
0
0
VERTEX
8
0
10
38.55658125
20
26.491243750000002
30
0
42
0.3701857950039744
0
VERTEX
8
0
10
38.753296875000004
20
26.464931250000003
30
0
0
VERTEX
8
0
10
38.759225
20
26.469228125
30
0
0
VERTEX
8
0
10
38.761040625
20
26.470309375000003
30
0
0
VERTEX
8
0
10
38.76230625
20
26.4714625
30
0
0
VERTEX
8
0
10
38.76595625
20
26.474109375
30
0
0
VERTEX
8
0
10
39.007828125
20
26.669203125000003
30
0
0
VERTEX
8
0
10
39.03523125
20
26.6772625
30
0
42
0.09951279364832429
0
VERTEX
8
0
10
39.0883875
20
26.705237500000003
30
0
0
VERTEX
8
0
10
39.089025
20
26.7058125
30
0
0
VERTEX
8
0
10
39.089384375
20
26.706053125
30
0
0
VERTEX
8
0
10
39.090128125
20
26.70680625
30
0
0
VERTEX
8
0
10
39.099996875
20
26.715709375000003
30
0
0
VERTEX
8
0
10
39.16858125
20
26.784296875000003
30
0
0
VERTEX
8
0
10
39.377190625000004
20
26.784296875000003
30
0
0
VERTEX
8
0
10
39.39110625
20
26.785709375
30
0
0
VERTEX
8
0
10
39.404987500000004
20
26.786853125
30
0
0
VERTEX
8
0
10
39.406934375
20
26.78731875
30
0
0
VERTEX
8
0
10
39.40785625
20
26.787412500000002
30
0
0
VERTEX
8
0
10
39.409559375
20
26.787946875000003
30
0
0
VERTEX
8
0
10
39.42019375
20
26.790490625
30
0
0
VERTEX
8
0
10
39.812440625
20
26.905856250000003
30
0
0
VERTEX
8
0
10
40.646371875
20
26.816581250000002
30
0
0
VERTEX
8
0
10
40.671440625
20
26.802906250000003
30
0
42
0.09950379859910705
0
VERTEX
8
0
10
40.728803125
20
26.7851
30
0
0
VERTEX
8
0
10
40.72966875
20
26.78505625
30
0
0
VERTEX
8
0
10
40.730090625
20
26.784971875
30
0
0
VERTEX
8
0
10
40.731146875
20
26.784978125000002
30
0
0
VERTEX
8
0
10
40.74441875
20
26.784296875000003
30
0
0
VERTEX
8
0
10
40.84141875
20
26.784296875000003
30
0
0
VERTEX
8
0
10
40.988928125
20
26.636784375
30
0
0
VERTEX
8
0
10
40.999740625
20
26.627965625
30
0
0
VERTEX
8
0
10
41.010390625
20
26.6189375
30
0
0
VERTEX
8
0
10
41.012096875000005
20
26.617890625
30
0
0
VERTEX
8
0
10
41.0128125
20
26.617306250000002
30
0
0
VERTEX
8
0
10
41.014390625000004
20
26.61648125
30
0
0
VERTEX
8
0
10
41.023715625
20
26.61075625
30
0
0
VERTEX
8
0
10
41.382653125000004
20
26.414975000000002
30
0
0
VERTEX
8
0
10
41.909203125000005
20
25.762171875
30
0
0
VERTEX
8
0
10
41.9172625
20
25.734765625
30
0
42
0.09951279364832429
0
VERTEX
8
0
10
41.945237500000005
20
25.681609375
30
0
0
VERTEX
8
0
10
41.9458125
20
25.680971875
30
0
0
VERTEX
8
0
10
41.946053125
20
25.680612500000002
30
0
0
VERTEX
8
0
10
41.94680625
20
25.67986875
30
0
0
VERTEX
8
0
10
41.955709375000005
20
25.67
30
0
0
VERTEX
8
0
10
42.024296875000005
20
25.601415625
30
0
0
VERTEX
8
0
10
42.024296875000005
20
25.39280625
30
0
0
VERTEX
8
0
10
42.025709375000005
20
25.378890625
30
0
0
VERTEX
8
0
10
42.026853125
20
25.365009375
30
0
0
VERTEX
8
0
10
42.02731875
20
25.3630625
30
0
0
VERTEX
8
0
10
42.027412500000004
20
25.362140625000002
30
0
0
VERTEX
8
0
10
42.027946875000005
20
25.3604375
30
0
0
VERTEX
8
0
10
42.030490625
20
25.349803125
30
0
0
VERTEX
8
0
10
42.14585625
20
24.95755625
30
0
0
VERTEX
8
0
10
42.05658125
20
24.123625
30
0
0
VERTEX
8
0
10
42.04290625
20
24.09855625
30
0
42
0.09950379859910705
0
VERTEX
8
0
10
42.0251
20
24.04119375
30
0
0
VERTEX
8
0
10
42.02505625
20
24.040328125000002
30
0
0
VERTEX
8
0
10
42.024971875
20
24.03990625
30
0
0
VERTEX
8
0
10
42.024978125000004
20
24.03885
30
0
0
VERTEX
8
0
10
42.024296875000005
20
24.025578125000003
30
0
0
VERTEX
8
0
10
42.024296875000005
20
23.928578125
30
0
0
VERTEX
8
0
10
41.876784375
20
23.781068750000003
30
0
0
VERTEX
8
0
10
41.867931250000005
20
23.7702125
30
0
0
VERTEX
8
0
10
41.8589375
20
23.75960625
30
0
0
VERTEX
8
0
10
41.857887500000004
20
23.757900000000003
30
0
0
VERTEX
8
0
10
41.85730625
20
23.757184375
30
0
0
VERTEX
8
0
10
41.856484375
20
23.7556125
30
0
0
VERTEX
8
0
10
41.85075625
20
23.746284375000002
30
0
0
VERTEX
8
0
10
41.3483125
20
22.8251375
30
0
0
VERTEX
8
0
10
41.348287500000005
20
22.825078125
30
0
0
VERTEX
8
0
10
41.348253125
20
22.825028125
30
0
0
VERTEX
8
0
10
41.3407125
20
22.807059375
30
0
0
VERTEX
8
0
10
41.336365625
20
22.796721875
30
0
0
VERTEX
8
0
10
41.33635625
20
22.796671875
30
0
0
VERTEX
8
0
10
41.336328125
20
22.79660625
30
0
0
VERTEX
8
0
10
41.333087500000005
20
22.7801625
30
0
0
VERTEX
8
0
10
41.330378125
20
22.7664875
30
0
0
VERTEX
8
0
10
41.330378125
20
22.766428125
30
0
0
VERTEX
8
0
10
41.330365625
20
22.7663625
30
0
42
0.04373180233298689
0
VERTEX
8
0
10
41.330596875000005
20
22.735665625
30
0
0
VERTEX
8
0
10
41.3306125
20
22.73559375
30
0
0
VERTEX
8
0
10
41.3306125
20
22.735540625000002
30
0
42
0.04359661797008578
0
VERTEX
8
0
10
41.337015625
20
22.70551875
30
0
0
VERTEX
8
0
10
41.337040625
20
22.705465625000002
30
0
0
VERTEX
8
0
10
41.337053125000004
20
22.7054
30
0
0
VERTEX
8
0
10
41.343934375
20
22.689703125
30
0
0
VERTEX
8
0
10
41.349368750000004
20
22.677278125
30
0
0
VERTEX
8
0
10
41.3494
20
22.677234375
30
0
0
VERTEX
8
0
10
41.349428125
20
22.67716875
30
0
42
0.04386680082445831
0
VERTEX
8
0
10
41.36715
20
22.6521
30
0
0
VERTEX
8
0
10
41.367200000000004
20
22.652053125000002
30
0
0
VERTEX
8
0
10
41.36723125
20
22.652009375000002
30
0
0
VERTEX
8
0
10
41.37755
20
22.64235
30
0
0
VERTEX
8
0
10
41.389634375
20
22.631018750000003
30
0
42
0.045043660655911005
0
VERTEX
8
0
10
41.4159
20
22.614890625
30
0
0
VERTEX
8
0
10
41.41595
20
22.614871875000002
30
0
0
VERTEX
8
0
10
41.4160125
20
22.614834375
30
0
42
0.045653772820663886
0
VERTEX
8
0
10
41.444875
20
22.604375
30
0
0
VERTEX
8
0
10
41.44495
20
22.604365625
30
0
0
VERTEX
8
0
10
41.444996875
20
22.604346875
30
0
0
VERTEX
8
0
10
41.459331250000005
20
22.602259375000003
30
0
0
VERTEX
8
0
10
41.475375
20
22.599909375000003
30
0
0
VERTEX
8
0
10
41.47543125
20
22.599912500000002
30
0
0
VERTEX
8
0
10
41.475496875000005
20
22.599903125
30
0
0
VERTEX
8
0
10
41.491765625
20
22.600846875000002
30
0
0
VERTEX
8
0
10
41.506146875
20
22.60166875
30
0
0
VERTEX
8
0
10
41.506203125
20
22.601684375
30
0
0
VERTEX
8
0
10
41.506268750000004
20
22.6016875
30
0
0
VERTEX
8
0
10
41.521559375
20
22.60495625
30
0
0
VERTEX
8
0
10
41.525440625
20
22.605996875000002
30
0
0
VERTEX
8
0
10
58.690059375000004
20
22.605996875000002
30
0
0
VERTEX
8
0
10
58.691728125000004
20
22.606165625000003
30
0
0
VERTEX
8
0
10
58.6933875
20
22.606034375
30
0
42
0.2588074920423914
0
VERTEX
8
0
10
58.821090625000004
20
22.680571875000002
30
0
0
VERTEX
8
0
10
58.828375
20
22.69440625
30
0
0
VERTEX
8
0
10
59.3096
20
23.73455625
30
0
0
VERTEX
8
0
10
60.3374875
20
25.086715625
30
0
0
VERTEX
8
0
10
61.632009375
20
26.18629375
30
0
0
VERTEX
8
0
10
63.132650000000005
20
26.98188125
30
0
0
VERTEX
8
0
10
64.76924062500001
20
27.43628125
30
0
0
VERTEX
8
0
10
66.46523125
20
27.528237500000003
30
0
0
VERTEX
8
0
10
68.14138125000001
20
27.253443750000002
30
0
0
VERTEX
8
0
10
69.71923125
20
26.624771875
30
0
0
VERTEX
8
0
10
71.12506875
20
25.6715875
30
0
0
VERTEX
8
0
10
72.293109375
20
24.438503125
30
0
0
VERTEX
8
0
10
73.16878125000001
20
22.983128125
30
0
0
VERTEX
8
0
10
73.7111125
20
21.373540625
30
0
0
VERTEX
8
0
10
73.89475625
20
19.685000000000002
30
0
0
VERTEX
8
0
10
73.7111125
20
17.99645625
30
0
0
VERTEX
8
0
10
73.16878125000001
20
16.38686875
30
0
0
VERTEX
8
0
10
72.293109375
20
14.931493750000001
30
0
0
VERTEX
8
0
10
72.06228125
20
14.687812500000001
30
0
0
VERTEX
8
0
10
72.06227187500001
20
14.687803125
30
0
0
VERTEX
8
0
10
72.06226562500001
20
14.68779375
30
0
0
VERTEX
8
0
10
71.917925
20
14.535415625
30
0
0
VERTEX
8
0
10
71.91790937500001
20
14.535403125
30
0
0
VERTEX
8
0
10
71.917896875
20
14.5353875
30
0
0
VERTEX
8
0
10
71.6292
20
14.230612500000001
30
0
0
VERTEX
8
0
10
71.6291875
20
14.230603125
30
0
0
VERTEX
8
0
10
71.62917812500001
20
14.230590625000001
30
0
0
VERTEX
8
0
10
71.340475
20
13.925809375
30
0
0
VERTEX
8
0
10
71.34046562500001
20
13.925803125
30
0
0
VERTEX
8
0
10
71.34045937500001
20
13.92579375
30
0
0
VERTEX
8
0
10
71.19611875
20
13.773415625
30
0
0
VERTEX
8
0
10
71.19610312500001
20
13.773403125000002
30
0
0
VERTEX
8
0
10
71.196090625
20
13.7733875
30
0
0
VERTEX
8
0
10
71.12506875
20
13.698409375
30
0
0
VERTEX
8
0
10
69.71923125
20
12.745225000000001
30
0
0
VERTEX
8
0
10
68.14138125000001
20
12.116553125000001
30
0
0
VERTEX
8
0
10
66.46524375
20
11.8417625
30
0
0
VERTEX
8
0
10
64.76924375
20
11.933715625000001
30
0
0
VERTEX
8
0
10
63.132656250000004
20
12.3881125
30
0
0
VERTEX
8
0
10
61.63201875
20
13.1837
30
0
0
VERTEX
8
0
10
60.337475000000005
20
14.28329375
30
0
0
VERTEX
8
0
10
59.3096
20
15.635440625000001
30
0
0
VERTEX
8
0
10
58.828375
20
16.675590625
30
0
0
VERTEX
8
0
10
58.827521875
20
16.677031250000002
30
0
0
VERTEX
8
0
10
58.826943750000005
20
16.678596875
30
0
42
0.25880289426692166
0
VERTEX
8
0
10
58.705675
20
16.763196875000002
30
0
0
VERTEX
8
0
10
58.690059375000004
20
16.764
30
0
0
VERTEX
8
0
10
43.183040625000004
20
16.764
30
0
0
VERTEX
8
0
10
43.17734375
20
16.763421875000002
30
0
0
VERTEX
8
0
10
43.171625
20
16.763571875
30
0
42
0.1531278540915039
0
VERTEX
8
0
10
43.086884375000004
20
16.729837500000002
30
0
0
VERTEX
8
0
10
43.075278125000004
20
16.719362500000003
30
0
0
VERTEX
8
0
10
42.970634375
20
16.61471875
30
0
0
VERTEX
8
0
10
42.967015625
20
16.61028125
30
0
0
VERTEX
8
0
10
42.962865625
20
16.60634375
30
0
42
0.15312467584094633
0
VERTEX
8
0
10
42.9268
20
16.522571875
30
0
0
VERTEX
8
0
10
42.925996875
20
16.50695625
30
0
0
VERTEX
8
0
10
42.925996875
20
14.220434375
30
0
0
VERTEX
8
0
10
42.726937500000005
20
13.477534375000001
30
0
0
VERTEX
8
0
10
42.342378125
20
12.811462500000001
30
0
0
VERTEX
8
0
10
41.798534375
20
12.26761875
30
0
0
VERTEX
8
0
10
41.1324625
20
11.883059375
30
0
0
VERTEX
8
0
10
40.389562500000004
20
11.684000000000001
30
0
0
VERTEX
8
0
10
39.620434375
20
11.684000000000001
30
0
0
VERTEX
8
0
10
38.877534375
20
11.883059375
30
0
0
VERTEX
8
0
10
38.531796875000005
20
12.082675
30
0
0
VERTEX
8
0
10
38.520134375000005
20
12.087915625
30
0
0
VERTEX
8
0
10
38.5086
20
12.09358125
30
0
42
0.49027822403431187
0
VERTEX
8
0
10
38.304
20
11.966309375
30
0
0
VERTEX
8
0
10
38.303809375
20
11.962615625
30
0
0
VERTEX
8
0
10
38.303553125
20
11.961115625
30
0
0
VERTEX
8
0
10
38.303621875000005
20
11.958984375
30
0
0
VERTEX
8
0
10
38.303196875000005
20
11.950693750000001
30
0
0
VERTEX
8
0
10
38.303196875000005
20
5.930653125
30
0
0
VERTEX
8
0
10
37.982240625
20
5.155796875
30
0
0
VERTEX
8
0
10
37.3892
20
4.5627562500000005
30
0
0
VERTEX
8
0
10
36.61434375
20
4.2418000000000005
30
0
0
SEQEND
0
POLYLINE
66
1
8
1_copper
10
0.0
20
0.0
30
0.0
70
1
0
VERTEX
8
0
10
118.325653125
20
4.2418000000000005
30
0
0
VERTEX
8
0
10
117.550796875
20
4.5627562500000005
30
0
0
VERTEX
8
0
10
116.95775625
20
5.155796875
30
0
0
VERTEX
8
0
10
116.63680000000001
20
5.930653125
30
0
0
VERTEX
8
0
10
116.63680000000001
20
13.93161875
30
0
0
VERTEX
8
0
10
116.63665
20
13.933109375
30
0
0
VERTEX
8
0
10
116.6367125
20
13.936787500000001
30
0
0
VERTEX
8
0
10
116.6237875
20
14.3175875
30
0
0
VERTEX
8
0
10
116.627096875
20
14.3264125
30
0
42
0.057244894201243623
0
VERTEX
8
0
10
116.635996875
20
14.364309375000001
30
0
0
VERTEX
8
0
10
116.63680000000001
20
14.379925
30
0
0
VERTEX
8
0
10
116.63680000000001
20
14.389340625
30
0
0
VERTEX
8
0
10
116.7141
20
14.57595625
30
0
0
VERTEX
8
0
10
116.71601562500001
20
14.582343750000001
30
0
0
VERTEX
8
0
10
116.71865625000001
20
14.588478125
30
0
42
0.05069217212055885
0
VERTEX
8
0
10
116.724896875
20
14.618662500000001
30
0
0
VERTEX
8
0
10
116.7257
20
14.634278125000002
30
0
0
VERTEX
8
0
10
116.7257
20
14.80641875
30
0
0
VERTEX
8
0
10
116.83259375
20
14.9133125
30
0
0
VERTEX
8
0
10
116.83843750000001
20
14.920478125
30
0
0
VERTEX
8
0
10
116.84485000000001
20
14.927153125
30
0
42
0.050694837967128786
0
VERTEX
8
0
10
116.86129375
20
14.953225000000002
30
0
0
VERTEX
8
0
10
116.865496875
20
14.962893750000001
30
0
0
VERTEX
8
0
10
116.866346875
20
14.96451875
30
0
0
VERTEX
8
0
10
116.866621875
20
14.965478125
30
0
0
VERTEX
8
0
10
116.867528125
20
14.967562500000001
30
0
0
VERTEX
8
0
10
117.16054375
20
15.748940625000001
30
0
0
VERTEX
8
0
10
117.16055625
20
15.748962500000001
30
0
0
VERTEX
8
0
10
117.16056250000001
20
15.748984375000001
30
0
0
VERTEX
8
0
10
117.21769375000001
20
15.901340625000001
30
0
0
VERTEX
8
0
10
117.21770625
20
15.901362500000001
30
0
0
VERTEX
8
0
10
117.2177125
20
15.901384375000001
30
0
0
VERTEX
8
0
10
117.27484687500001
20
16.053740625
30
0
0
VERTEX
8
0
10
117.27485625
20
16.0537625
30
0
0
VERTEX
8
0
10
117.27486250000001
20
16.053784375
30
0
0
VERTEX
8
0
10
117.331996875
20
16.206140625
30
0
0
VERTEX
8
0
10
117.33200625
20
16.2061625
30
0
0
VERTEX
8
0
10
117.3320125
20
16.206184375
30
0
0
VERTEX
8
0
10
117.38914687500001
20
16.35854375
30
0
0
VERTEX
8
0
10
117.38915625
20
16.3585625
30
0
0
VERTEX
8
0
10
117.38916250000001
20
16.35858125
30
0
0
VERTEX
8
0
10
117.446296875
20
16.51094375
30
0
0
VERTEX
8
0
10
117.44630625
20
16.5109625
30
0
0
VERTEX
8
0
10
117.4463125
20
16.51098125
30
0
0
VERTEX
8
0
10
117.50344687500001
20
16.66334375
30
0
0
VERTEX
8
0
10
117.50345625
20
16.6633625
30
0
0
VERTEX
8
0
10
117.50346250000001
20
16.66338125
30
0
0
VERTEX
8
0
10
117.560596875
20
16.81574375
30
0
0
VERTEX
8
0
10
117.56060625
20
16.8157625
30
0
0
VERTEX
8
0
10
117.56060937500001
20
16.81578125
30
0
0
VERTEX
8
0
10
117.61774687500001
20
16.968146875000002
30
0
0
VERTEX
8
0
10
117.61775625
20
16.968162500000002
30
0
0
VERTEX
8
0
10
117.617759375
20
16.96818125
30
0
0
VERTEX
8
0
10
117.674896875
20
17.120546875000002
30
0
0
VERTEX
8
0
10
117.67490625
20
17.120562500000002
30
0
0
VERTEX
8
0
10
117.674909375
20
17.120578125
30
0
0
VERTEX
8
0
10
117.73205
20
17.272946875000002
30
0
0
VERTEX
8
0
10
117.73205625
20
17.272962500000002
30
0
0
VERTEX
8
0
10
117.732059375
20
17.272978125
30
0
0
VERTEX
8
0
10
117.78920000000001
20
17.425346875000002
30
0
0
VERTEX
8
0
10
117.78920625
20
17.425362500000002
30
0
0
VERTEX
8
0
10
117.789209375
20
17.425378125
30
0
0
VERTEX
8
0
10
117.84635
20
17.577746875000003
30
0
0
VERTEX
8
0
10
117.84635625
20
17.577762500000002
30
0
0
VERTEX
8
0
10
117.846359375
20
17.577778125000002
30
0
0
VERTEX
8
0
10
118.92655312500001
20
20.4582875
30
0
0
VERTEX
8
0
10
118.92975000000001
20
20.470437500000003
30
0
0
VERTEX
8
0
10
118.93340625
20
20.482468750000002
30
0
42
0.6229710338407515
0
VERTEX
8
0
10
118.715640625
20
20.64808125
30
0
0
VERTEX
8
0
10
118.712075
20
20.6460625
30
0
0
VERTEX
8
0
10
118.71057812500001
20
20.645428125000002
30
0
0
VERTEX
8
0
10
118.708815625
20
20.644215625
30
0
0
VERTEX
8
0
10
118.7020375
20
20.640375000000002
30
0
0
VERTEX
8
0
10
113.612834375
20
17.401790625
30
0
0
VERTEX
8
0
10
113.60589375
20
17.396315625
30
0
0
VERTEX
8
0
10
113.59849375
20
17.391450000000003
30
0
0
VERTEX
8
0
10
113.58991250000001
20
17.38370625
30
0
0
VERTEX
8
0
10
113.58863437500001
20
17.382696875
30
0
0
VERTEX
8
0
10
113.588125
20
17.382090625
30
0
0
VERTEX
8
0
10
113.5868875
20
17.380975
30
0
0
VERTEX
8
0
10
113.55353125
20
17.347615625
30
0
0
VERTEX
8
0
10
113.277921875
20
17.18849375
30
0
0
VERTEX
8
0
10
113.27648125
20
17.187453125
30
0
0
VERTEX
8
0
10
113.27230312500001
20
17.1850875
30
0
0
VERTEX
8
0
10
113.00378125
20
17.014209375
30
0
0
VERTEX
8
0
10
112.95877187500001
20
17.00004375
30
0
0
VERTEX
8
0
10
112.950609375
20
16.996534375
30
0
0
VERTEX
8
0
10
112.94224062500001
20
16.993762500000003
30
0
0
VERTEX
8
0
10
112.931971875
20
16.98851875
30
0
0
VERTEX
8
0
10
112.93045625
20
16.987865625
30
0
0
VERTEX
8
0
10
112.9298
20
16.987409375000002
30
0
0
VERTEX
8
0
10
112.92831562500001
20
16.98665
30
0
0
VERTEX
8
0
10
112.887459375
20
16.963059375
30
0
0
VERTEX
8
0
10
112.58004687500001
20
16.880690625
30
0
0
VERTEX
8
0
10
112.578378125
20
16.88005625
30
0
0
VERTEX
8
0
10
112.573734375
20
16.878853125
30
0
0
VERTEX
8
0
10
112.27014687500001
20
16.783296875
30
0
0
VERTEX
8
0
10
112.223
20
16.7812625
30
0
0
VERTEX
8
0
10
112.214246875
20
16.779990625
30
0
0
VERTEX
8
0
10
112.20541875
20
16.779478125
30
0
0
VERTEX
8
0
10
112.194096875
20
16.77705625
30
0
0
VERTEX
8
0
10
112.192496875
20
16.776825000000002
30
0
0
VERTEX
8
0
10
112.191759375
20
16.776559375
30
0
0
VERTEX
8
0
10
112.190128125
20
16.776209375
30
0
0
VERTEX
8
0
10
112.1445625
20
16.764
30
0
0
VERTEX
8
0
10
111.82629375
20
16.764
30
0
0
VERTEX
8
0
10
111.824521875
20
16.763818750000002
30
0
0
VERTEX
8
0
10
111.819721875
20
16.763859375
30
0
0
VERTEX
8
0
10
111.50174375
20
16.7501375
30
0
0
VERTEX
8
0
10
111.455690625
20
16.760371875
30
0
42
0.029017326566757047
0
VERTEX
8
0
10
111.43824375000001
20
16.763196875000002
30
0
0
VERTEX
8
0
10
111.426690625
20
16.763790625000002
30
0
0
VERTEX
8
0
10
111.425078125
20
16.76398125
30
0
0
VERTEX
8
0
10
111.42429375
20
16.763915625
30
0
0
VERTEX
8
0
10
111.422628125
20
16.764
30
0
0
VERTEX
8
0
10
104.52031875
20
16.764
30
0
0
VERTEX
8
0
10
104.51043125000001
20
16.762996875000002
30
0
0
VERTEX
8
0
10
104.500534375
20
16.762709375
30
0
42
0.2745371037916163
0
VERTEX
8
0
10
104.378353125
20
16.666478125
30
0
0
VERTEX
8
0
10
104.37743125
20
16.664603125
30
0
0
VERTEX
8
0
10
104.3770875
20
16.663275000000002
30
0
0
VERTEX
8
0
10
104.37589687500001
20
16.6602625
30
0
0
VERTEX
8
0
10
104.28378125
20
16.38686875
30
0
0
VERTEX
8
0
10
103.40810937500001
20
14.931493750000001
30
0
0
VERTEX
8
0
10
103.17728125000001
20
14.687812500000001
30
0
0
VERTEX
8
0
10
103.177271875
20
14.687803125
30
0
0
VERTEX
8
0
10
103.177265625
20
14.68779375
30
0
0
VERTEX
8
0
10
103.032925
20
14.535415625
30
0
0
VERTEX
8
0
10
103.032909375
20
14.535403125
30
0
0
VERTEX
8
0
10
103.032896875
20
14.5353875
30
0
0
VERTEX
8
0
10
102.7442
20
14.230612500000001
30
0
0
VERTEX
8
0
10
102.74418750000001
20
14.230603125
30
0
0
VERTEX
8
0
10
102.744178125
20
14.230590625000001
30
0
0
VERTEX
8
0
10
102.455475
20
13.925809375
30
0
0
VERTEX
8
0
10
102.455465625
20
13.925803125
30
0
0
VERTEX
8
0
10
102.455459375
20
13.92579375
30
0
0
VERTEX
8
0
10
102.31111875
20
13.773415625
30
0
0
VERTEX
8
0
10
102.311103125
20
13.773403125000002
30
0
0
VERTEX
8
0
10
102.311090625
20
13.7733875
30
0
0
VERTEX
8
0
10
102.24006875
20
13.698409375
30
0
0
VERTEX
8
0
10
100.83423125
20
12.745225000000001
30
0
0
VERTEX
8
0
10
99.256378125
20
12.116553125000001
30
0
0
VERTEX
8
0
10
97.580234375
20
11.841759375
30
0
0
VERTEX
8
0
10
95.88424375000001
20
11.933715625000001
30
0
0
VERTEX
8
0
10
94.24765625
20
12.3881125
30
0
0
VERTEX
8
0
10
92.74701875000001
20
13.1837
30
0
0
VERTEX
8
0
10
91.452475
20
14.28329375
30
0
0
VERTEX
8
0
10
90.4246
20
15.635440625000001
30
0
0
VERTEX
8
0
10
89.711415625
20
17.176959375
30
0
0
VERTEX
8
0
10
89.3462875
20
18.835753125
30
0
0
VERTEX
8
0
10
89.3462875
20
20.53424375
30
0
0
VERTEX
8
0
10
89.711415625
20
22.193037500000003
30
0
0
VERTEX
8
0
10
90.4246
20
23.73455625
30
0
0
VERTEX
8
0
10
91.4524875
20
25.086715625
30
0
0
VERTEX
8
0
10
92.747009375
20
26.18629375
30
0
0
VERTEX
8
0
10
94.24765000000001
20
26.98188125
30
0
0
VERTEX
8
0
10
95.884240625
20
27.43628125
30
0
0
VERTEX
8
0
10
97.58023125000001
20
27.528237500000003
30
0
0
VERTEX
8
0
10
99.25638125
20
27.253443750000002
30
0
0
VERTEX
8
0
10
100.83423125
20
26.624771875
30
0
0
VERTEX
8
0
10
102.24006875
20
25.6715875
30
0
0
VERTEX
8
0
10
103.40810937500001
20
24.438503125
30
0
0
VERTEX
8
0
10
104.28378125
20
22.983128125
30
0
0
VERTEX
8
0
10
104.37589687500001
20
22.709734375
30
0
0
VERTEX
8
0
10
104.37999375000001
20
22.700709375000002
30
0
0
VERTEX
8
0
10
104.38343437500001
20
22.6914
30
0
42
0.2745253864640132
0
VERTEX
8
0
10
104.51363437500001
20
22.606340625
30
0
0
VERTEX
8
0
10
104.5157125
20
22.606065625
30
0
0
VERTEX
8
0
10
104.51708437500001
20
22.6061625
30
0
0
VERTEX
8
0
10
104.52031875
20
22.605996875000002
30
0
0
VERTEX
8
0
10
110.865025
20
22.605996875000002
30
0
0
VERTEX
8
0
10
110.8695125
20
22.606453125
30
0
0
VERTEX
8
0
10
110.873996875
20
22.6062625
30
0
42
0.10164354757044863
0
VERTEX
8
0
10
110.93324062500001
20
22.622115625000003
30
0
0
VERTEX
8
0
10
110.94684375
20
22.629821875
30
0
0
VERTEX
8
0
10
117.501225
20
26.80079375
30
0
0
VERTEX
8
0
10
118.23484375000001
20
27.0317
30
0
0
VERTEX
8
0
10
119.00325625
20
27.064859375
30
0
0
VERTEX
8
0
10
119.7540625
20
26.8980125
30
0
0
VERTEX
8
0
10
120.43608125
20
26.542540625
30
0
0
VERTEX
8
0
10
121.00286875
20
26.022650000000002
30
0
0
VERTEX
8
0
10
121.073603125
20
25.91149375
30
0
0
VERTEX
8
0
10
121.0783375
20
25.90549375
30
0
42
0.38842028165409853
0
VERTEX
8
0
10
121.290315625
20
25.868984375
30
0
0
VERTEX
8
0
10
121.29491250000001
20
25.873
30
0
0
VERTEX
8
0
10
121.539934375
20
25.984371875
30
0
0
VERTEX
8
0
10
121.54346875
20
25.986434375
30
0
0
VERTEX
8
0
10
121.547271875
20
25.987946875000002
30
0
42
0.050689323299372965
0
VERTEX
8
0
10
121.57302812500001
20
26.004875000000002
30
0
0
VERTEX
8
0
10
121.58463437500001
20
26.01535
30
0
0
VERTEX
8
0
10
121.71857812500001
20
26.149296875
30
0
0
VERTEX
8
0
10
121.869753125
20
26.149296875
30
0
0
VERTEX
8
0
10
121.87896875000001
20
26.150234375
30
0
0
VERTEX
8
0
10
121.888209375
20
26.15041875
30
0
42
0.05069297026516032
0
VERTEX
8
0
10
121.918271875
20
26.157225
30
0
0
VERTEX
8
0
10
121.928078125
20
26.1610875
30
0
0
VERTEX
8
0
10
121.929828125
20
26.1616375
30
0
0
VERTEX
8
0
10
121.93070312500001
20
26.162121875
30
0
0
VERTEX
8
0
10
121.93281875000001
20
26.16295625
30
0
0
VERTEX
8
0
10
122.064384375
20
26.222759375000003
30
0
0
VERTEX
8
0
10
122.902590625
20
26.251209375000002
30
0
0
VERTEX
8
0
10
123.148475
20
26.159000000000002
30
0
0
VERTEX
8
0
10
123.152428125
20
26.157959375
30
0
0
VERTEX
8
0
10
123.1561875
20
26.156340625000002
30
0
42
0.05069217212055885
0
VERTEX
8
0
10
123.186371875
20
26.150100000000002
30
0
0
VERTEX
8
0
10
123.2019875
20
26.149296875
30
0
0
VERTEX
8
0
10
123.39141875
20
26.149296875
30
0
0
VERTEX
8
0
10
123.498315625
20
26.0424
30
0
0
VERTEX
8
0
10
123.50549375
20
26.03654375
30
0
0
VERTEX
8
0
10
123.51215937500001
20
26.03014375
30
0
42
0.05069079045477388
0
VERTEX
8
0
10
123.538228125
20
26.0137
30
0
0
VERTEX
8
0
10
123.547896875
20
26.009496875
30
0
0
VERTEX
8
0
10
123.54952187500001
20
26.008646875
30
0
0
VERTEX
8
0
10
123.55048125
20
26.008371875
30
0
0
VERTEX
8
0
10
123.552565625
20
26.007465625000002
30
0
0
VERTEX
8
0
10
123.68788125
20
25.956721875
30
0
0
VERTEX
8
0
10
124.30070312500001
20
25.384134375000002
30
0
0
VERTEX
8
0
10
124.409371875
20
25.1450625
30
0
0
VERTEX
8
0
10
124.411434375
20
25.141528125
30
0
0
VERTEX
8
0
10
124.412946875
20
25.137725
30
0
42
0.050689323299372965
0
VERTEX
8
0
10
124.42987500000001
20
25.111968750000003
30
0
0
VERTEX
8
0
10
124.44035000000001
20
25.100362500000003
30
0
0
VERTEX
8
0
10
124.574296875
20
24.966418750000003
30
0
0
VERTEX
8
0
10
124.574296875
20
24.81524375
30
0
0
VERTEX
8
0
10
124.57523437500001
20
24.806028125
30
0
0
VERTEX
8
0
10
124.57541875000001
20
24.7967875
30
0
42
0.05069297026516032
0
VERTEX
8
0
10
124.58222500000001
20
24.766725
30
0
0
VERTEX
8
0
10
124.5860875
20
24.75691875
30
0
0
VERTEX
8
0
10
124.58663750000001
20
24.755168750000003
30
0
0
VERTEX
8
0
10
124.58712187500001
20
24.754293750000002
30
0
0
VERTEX
8
0
10
124.58795625
20
24.752178125
30
0
0
VERTEX
8
0
10
124.647759375
20
24.6206125
30
0
0
VERTEX
8
0
10
124.676209375
20
23.78240625
30
0
0
VERTEX
8
0
10
124.584
20
23.536518750000003
30
0
0
VERTEX
8
0
10
124.582959375
20
23.532565625
30
0
0
VERTEX
8
0
10
124.58134062500001
20
23.528806250000002
30
0
42
0.05069217212055885
0
VERTEX
8
0
10
124.5751
20
23.498621875
30
0
0
VERTEX
8
0
10
124.574296875
20
23.483006250000003
30
0
0
VERTEX
8
0
10
124.574296875
20
23.293578125
30
0
0
VERTEX
8
0
10
124.467403125
20
23.186684375000002
30
0
0
VERTEX
8
0
10
124.46155937500001
20
23.17951875
30
0
0
VERTEX
8
0
10
124.45514687500001
20
23.172843750000002
30
0
42
0.050694837967128786
0
VERTEX
8
0
10
124.438703125
20
23.146771875000002
30
0
0
VERTEX
8
0
10
124.4345
20
23.137103125
30
0
0
VERTEX
8
0
10
124.43365
20
23.135478125000002
30
0
0
VERTEX
8
0
10
124.43337500000001
20
23.13451875
30
0
0
VERTEX
8
0
10
124.43246875000001
20
23.132434375000003
30
0
0
VERTEX
8
0
10
123.58937812500001
20
20.884190625000002
30
0
0
VERTEX
8
0
10
123.589365625
20
20.88416875
30
0
0
VERTEX
8
0
10
123.589359375
20
20.88414375
30
0
0
VERTEX
8
0
10
123.532228125
20
20.731790625000002
30
0
0
VERTEX
8
0
10
123.532215625
20
20.73176875
30
0
0
VERTEX
8
0
10
123.53220937500001
20
20.731746875000002
30
0
0
VERTEX
8
0
10
123.47507812500001
20
20.579390625000002
30
0
0
VERTEX
8
0
10
123.475065625
20
20.57936875
30
0
0
VERTEX
8
0
10
123.475059375
20
20.579346875000002
30
0
0
VERTEX
8
0
10
123.41792500000001
20
20.426990625000002
30
0
0
VERTEX
8
0
10
123.417915625
20
20.42696875
30
0
0
VERTEX
8
0
10
123.41790937500001
20
20.426946875000002
30
0
0
VERTEX
8
0
10
123.360775
20
20.274590625000002
30
0
0
VERTEX
8
0
10
123.360765625
20
20.27456875
30
0
0
VERTEX
8
0
10
123.360759375
20
20.274546875000002
30
0
0
VERTEX
8
0
10
123.30362500000001
20
20.122190625
30
0
0
VERTEX
8
0
10
123.303615625
20
20.12216875
30
0
0
VERTEX
8
0
10
123.30360937500001
20
20.122146875000002
30
0
0
VERTEX
8
0
10
123.246475
20
19.969790625
30
0
0
VERTEX
8
0
10
123.246465625
20
19.96976875
30
0
0
VERTEX
8
0
10
123.246459375
20
19.969746875000002
30
0
0
VERTEX
8
0
10
123.18932500000001
20
19.817387500000002
30
0
0
VERTEX
8
0
10
123.189315625
20
19.81736875
30
0
0
VERTEX
8
0
10
123.18930937500001
20
19.81735
30
0
0
VERTEX
8
0
10
123.132175
20
19.664987500000002
30
0
0
VERTEX
8
0
10
123.132165625
20
19.66496875
30
0
0
VERTEX
8
0
10
123.132159375
20
19.66495
30
0
0
VERTEX
8
0
10
123.07502500000001
20
19.512587500000002
30
0
0
VERTEX
8
0
10
123.075015625
20
19.51256875
30
0
0
VERTEX
8
0
10
123.07500937500001
20
19.51255
30
0
0
VERTEX
8
0
10
123.017875
20
19.360187500000002
30
0
0
VERTEX
8
0
10
123.017865625
20
19.36016875
30
0
0
VERTEX
8
0
10
123.017859375
20
19.36015
30
0
0
VERTEX
8
0
10
122.96072500000001
20
19.207787500000002
30
0
0
VERTEX
8
0
10
122.960715625
20
19.20776875
30
0
0
VERTEX
8
0
10
122.96070937500001
20
19.20775
30
0
0
VERTEX
8
0
10
122.903575
20
19.055387500000002
30
0
0
VERTEX
8
0
10
122.903565625
20
19.05536875
30
0
0
VERTEX
8
0
10
122.9035625
20
19.05535
30
0
0
VERTEX
8
0
10
122.84642500000001
20
18.902987500000002
30
0
0
VERTEX
8
0
10
122.846415625
20
18.90296875
30
0
0
VERTEX
8
0
10
122.8464125
20
18.90295
30
0
0
VERTEX
8
0
10
122.789275
20
18.750584375000003
30
0
0
VERTEX
8
0
10
122.78926562500001
20
18.75056875
30
0
0
VERTEX
8
0
10
122.7892625
20
18.750553125
30
0
0
VERTEX
8
0
10
122.787075
20
18.744721875
30
0
42
0.7650838432424895
0
VERTEX
8
0
10
123.02592812500001
20
18.572971875
30
0
0
VERTEX
8
0
10
123.02760937500001
20
18.574490625
30
0
0
VERTEX
8
0
10
123.02843750000001
20
18.575059375000002
30
0
0
VERTEX
8
0
10
123.02971875
20
18.57639375
30
0
0
VERTEX
8
0
10
123.037534375
20
18.583446875
30
0
0
VERTEX
8
0
10
126.47646250000001
20
22.022378125
30
0
0
VERTEX
8
0
10
127.14253437500001
20
22.4069375
30
0
0
VERTEX
8
0
10
127.885434375
20
22.605996875000002
30
0
0
VERTEX
8
0
10
139.970059375
20
22.605996875000002
30
0
0
VERTEX
8
0
10
139.971728125
20
22.606165625000003
30
0
0
VERTEX
8
0
10
139.9733875
20
22.606034375
30
0
42
0.2588074920423914
0
VERTEX
8
0
10
140.101090625
20
22.680571875000002
30
0
0
VERTEX
8
0
10
140.108375
20
22.69440625
30
0
0
VERTEX
8
0
10
140.58960000000002
20
23.73455625
30
0
0
VERTEX
8
0
10
141.6174875
20
25.086715625
30
0
0
VERTEX
8
0
10
142.912009375
20
26.18629375
30
0
0
VERTEX
8
0
10
144.41265
20
26.98188125
30
0
0
VERTEX
8
0
10
146.049240625
20
27.43628125
30
0
0
VERTEX
8
0
10
147.74523125000002
20
27.528237500000003
30
0
0
VERTEX
8
0
10
149.42138125
20
27.253443750000002
30
0
0
VERTEX
8
0
10
150.99923125
20
26.624771875
30
0
0
VERTEX
8
0
10
152.40506875
20
25.6715875
30
0
0
VERTEX
8
0
10
153.573109375
20
24.438503125
30
0
0
VERTEX
8
0
10
154.44878125
20
22.983128125
30
0
0
VERTEX
8
0
10
154.9911125
20
21.373540625
30
0
0
VERTEX
8
0
10
155.17475625
20
19.685000000000002
30
0
0
VERTEX
8
0
10
154.9911125
20
17.99645625
30
0
0
VERTEX
8
0
10
154.44878125
20
16.38686875
30
0
0
VERTEX
8
0
10
153.573109375
20
14.931493750000001
30
0
0
VERTEX
8
0
10
153.34228125
20
14.687812500000001
30
0
0
VERTEX
8
0
10
153.342271875
20
14.687803125
30
0
0
VERTEX
8
0
10
153.342265625
20
14.68779375
30
0
0
VERTEX
8
0
10
153.197925
20
14.535415625
30
0
0
VERTEX
8
0
10
153.197909375
20
14.535403125
30
0
0
VERTEX
8
0
10
153.197896875
20
14.5353875
30
0
0
VERTEX
8
0
10
152.9092
20
14.230612500000001
30
0
0
VERTEX
8
0
10
152.9091875
20
14.230603125
30
0
0
VERTEX
8
0
10
152.909178125
20
14.230590625000001
30
0
0
VERTEX
8
0
10
152.620475
20
13.925809375
30
0
0
VERTEX
8
0
10
152.620465625
20
13.925803125
30
0
0
VERTEX
8
0
10
152.620459375
20
13.92579375
30
0
0
VERTEX
8
0
10
152.47611875
20
13.773415625
30
0
0
VERTEX
8
0
10
152.476103125
20
13.773403125000002
30
0
0
VERTEX
8
0
10
152.476090625
20
13.7733875
30
0
0
VERTEX
8
0
10
152.40506875
20
13.698409375
30
0
0
VERTEX
8
0
10
150.999225
20
12.745221875
30
0
0
VERTEX
8
0
10
149.42138125
20
12.116553125000001
30
0
0
VERTEX
8
0
10
147.745234375
20
11.841759375
30
0
0
VERTEX
8
0
10
146.04924375000002
20
11.933715625000001
30
0
0
VERTEX
8
0
10
144.41265625
20
12.3881125
30
0
0
VERTEX
8
0
10
142.912009375
20
13.183703125000001
30
0
0
VERTEX
8
0
10
141.617475
20
14.28329375
30
0
0
VERTEX
8
0
10
140.58960000000002
20
15.635440625000001
30
0
0
VERTEX
8
0
10
140.108375
20
16.675590625
30
0
0
VERTEX
8
0
10
140.107521875
20
16.677031250000002
30
0
0
VERTEX
8
0
10
140.10694375
20
16.678596875
30
0
42
0.25880289426692166
0
VERTEX
8
0
10
139.98567500000001
20
16.763196875000002
30
0
0
VERTEX
8
0
10
139.970059375
20
16.764
30
0
0
VERTEX
8
0
10
129.543040625
20
16.764
30
0
0
VERTEX
8
0
10
129.53734375000002
20
16.763421875000002
30
0
0
VERTEX
8
0
10
129.53162500000002
20
16.763571875
30
0
42
0.1531278540915039
0
VERTEX
8
0
10
129.446884375
20
16.729837500000002
30
0
0
VERTEX
8
0
10
129.435278125
20
16.719362500000003
30
0
0
VERTEX
8
0
10
124.348534375
20
11.63261875
30
0
0
VERTEX
8
0
10
123.6824625
20
11.248059375
30
0
0
VERTEX
8
0
10
122.93956250000001
20
11.049000000000001
30
0
0
VERTEX
8
0
10
122.170434375
20
11.049000000000001
30
0
0
VERTEX
8
0
10
121.42753437500001
20
11.248059375
30
0
0
VERTEX
8
0
10
121.08179687500001
20
11.447675
30
0
0
VERTEX
8
0
10
121.07013437500001
20
11.452915625000001
30
0
0
VERTEX
8
0
10
121.05860000000001
20
11.45858125
30
0
42
0.49027822403431187
0
VERTEX
8
0
10
120.854
20
11.331309375
30
0
0
VERTEX
8
0
10
120.85380937500001
20
11.327615625
30
0
0
VERTEX
8
0
10
120.853553125
20
11.326115625
30
0
0
VERTEX
8
0
10
120.853621875
20
11.323984375
30
0
0
VERTEX
8
0
10
120.85319687500001
20
11.315693750000001
30
0
0
VERTEX
8
0
10
120.85319687500001
20
5.930653125
30
0
0
VERTEX
8
0
10
120.532240625
20
5.155796875
30
0
0
VERTEX
8
0
10
119.9392
20
4.5627562500000005
30
0
0
VERTEX
8
0
10
119.16434375
20
4.2418000000000005
30
0
0
SEQEND
0
POLYLINE
66
1
8
1_copper
10
0.0
20
0.0
30
0.0
70
1
0
VERTEX
8
0
10
106.44504375000001
20
11.01724375
30
0
0
VERTEX
8
0
10
106.44504375000001
20
13.923834375
30
0
0
VERTEX
8
0
10
106.6141375
20
13.90718125
30
0
0
VERTEX
8
0
10
106.92500000000001
20
13.845346875
30
0
0
VERTEX
8
0
10
107.228290625
20
13.75334375
30
0
0
VERTEX
8
0
10
107.52111562500001
20
13.632053125
30
0
0
VERTEX
8
0
10
107.80065312500001
20
13.482637500000001
30
0
0
VERTEX
8
0
10
108.064175
20
13.306559375
30
0
0
VERTEX
8
0
10
108.309178125
20
13.1054875
30
0
0
VERTEX
8
0
10
108.5332875
20
12.881378125000001
30
0
0
VERTEX
8
0
10
108.73435937500001
20
12.636375000000001
30
0
0
VERTEX
8
0
10
108.9104375
20
12.372853125
30
0
0
VERTEX
8
0
10
109.059853125
20
12.093315625
30
0
0
VERTEX
8
0
10
109.18114375
20
11.800490625
30
0
0
VERTEX
8
0
10
109.27314687500001
20
11.497200000000001
30
0
0
VERTEX
8
0
10
109.33498125
20
11.1863375
30
0
0
VERTEX
8
0
10
109.351634375
20
11.01724375
30
0
0
SEQEND
0
POLYLINE
66
1
8
1_copper
10
0.0
20
0.0
30
0.0
70
1
0
VERTEX
8
0
10
135.1233625
20
11.01724375
30
0
0
VERTEX
8
0
10
135.14001562500002
20
11.1863375
30
0
0
VERTEX
8
0
10
135.20185
20
11.497200000000001
30
0
0
VERTEX
8
0
10
135.293853125
20
11.800490625
30
0
0
VERTEX
8
0
10
135.41514375
20
12.093315625
30
0
0
VERTEX
8
0
10
135.56455937500002
20
12.372853125
30
0
0
VERTEX
8
0
10
135.74063750000002
20
12.636375000000001
30
0
0
VERTEX
8
0
10
135.94170937500002
20
12.881378125000001
30
0
0
VERTEX
8
0
10
136.16581875
20
13.1054875
30
0
0
VERTEX
8
0
10
136.410821875
20
13.306559375
30
0
0
VERTEX
8
0
10
136.67434375000002
20
13.482637500000001
30
0
0
VERTEX
8
0
10
136.95388125
20
13.632053125
30
0
0
VERTEX
8
0
10
137.24670625000002
20
13.75334375
30
0
0
VERTEX
8
0
10
137.549996875
20
13.845346875
30
0
0
VERTEX
8
0
10
137.86085937500002
20
13.90718125
30
0
0
VERTEX
8
0
10
138.02995
20
13.923834375
30
0
0
VERTEX
8
0
10
138.02995
20
11.01724375
30
0
0
SEQEND
0
POLYLINE
66
1
8
1_copper
10
0.0
20
0.0
30
0.0
70
1
0
VERTEX
8
0
10
138.63954375
20
11.01724375
30
0
0
VERTEX
8
0
10
138.63954375
20
13.923834375
30
0
0
VERTEX
8
0
10
138.8086375
20
13.90718125
30
0
0
VERTEX
8
0
10
139.11950000000002
20
13.845346875
30
0
0
VERTEX
8
0
10
139.422790625
20
13.75334375
30
0
0
VERTEX
8
0
10
139.715615625
20
13.632053125
30
0
0
VERTEX
8
0
10
139.995153125
20
13.482637500000001
30
0
0
VERTEX
8
0
10
140.258675
20
13.306559375
30
0
0
VERTEX
8
0
10
140.503678125
20
13.1054875
30
0
0
VERTEX
8
0
10
140.7277875
20
12.881378125000001
30
0
0
VERTEX
8
0
10
140.928859375
20
12.636375000000001
30
0
0
VERTEX
8
0
10
141.1049375
20
12.372853125
30
0
0
VERTEX
8
0
10
141.254353125
20
12.093315625
30
0
0
VERTEX
8
0
10
141.37564375
20
11.800490625
30
0
0
VERTEX
8
0
10
141.467646875
20
11.497200000000001
30
0
0
VERTEX
8
0
10
141.52948125
20
11.1863375
30
0
0
VERTEX
8
0
10
141.546134375
20
11.01724375
30
0
0
SEQEND
0
POLYLINE
66
1
8
1_copper
10
0.0
20
0.0
30
0.0
70
1
0
VERTEX
8
0
10
153.0938625
20
11.01724375
30
0
0
VERTEX
8
0
10
153.110515625
20
11.1863375
30
0
0
VERTEX
8
0
10
153.17235
20
11.497200000000001
30
0
0
VERTEX
8
0
10
153.264353125
20
11.800490625
30
0
0
VERTEX
8
0
10
153.38564375
20
12.093315625
30
0
0
VERTEX
8
0
10
153.535059375
20
12.372853125
30
0
0
VERTEX
8
0
10
153.7111375
20
12.636375000000001
30
0
0
VERTEX
8
0
10
153.912209375
20
12.881378125000001
30
0
0
VERTEX
8
0
10
154.13631875000002
20
13.1054875
30
0
0
VERTEX
8
0
10
154.381321875
20
13.306559375
30
0
0
VERTEX
8
0
10
154.64484375
20
13.482637500000001
30
0
0
VERTEX
8
0
10
154.92438125
20
13.632053125
30
0
0
VERTEX
8
0
10
155.21720625
20
13.75334375
30
0
0
VERTEX
8
0
10
155.52049687500002
20
13.845346875
30
0
0
VERTEX
8
0
10
155.831359375
20
13.90718125
30
0
0
VERTEX
8
0
10
156.00045
20
13.923834375
30
0
0
VERTEX
8
0
10
156.00045
20
11.01724375
30
0
0
SEQEND
0
POLYLINE
66
1
8
1_copper
10
0.0
20
0.0
30
0.0
70
1
0
VERTEX
8
0
10
156.61004375000002
20
11.01724375
30
0
0
VERTEX
8
0
10
156.61004375000002
20
13.923834375
30
0
0
VERTEX
8
0
10
156.77913750000002
20
13.90718125
30
0
0
VERTEX
8
0
10
157.09
20
13.845346875
30
0
0
VERTEX
8
0
10
157.39329062500002
20
13.75334375
30
0
0
VERTEX
8
0
10
157.686115625
20
13.632053125
30
0
0
VERTEX
8
0
10
157.96565312500002
20
13.482637500000001
30
0
0
VERTEX
8
0
10
158.229175
20
13.306559375
30
0
0
VERTEX
8
0
10
158.474178125
20
13.1054875
30
0
0
VERTEX
8
0
10
158.69828750000002
20
12.881378125000001
30
0
0
VERTEX
8
0
10
158.89935937500002
20
12.636375000000001
30
0
0
VERTEX
8
0
10
159.07543750000002
20
12.372853125
30
0
0
VERTEX
8
0
10
159.224853125
20
12.093315625
30
0
0
VERTEX
8
0
10
159.34614375
20
11.800490625
30
0
0
VERTEX
8
0
10
159.438146875
20
11.497200000000001
30
0
0
VERTEX
8
0
10
159.49998125000002
20
11.1863375
30
0
0
VERTEX
8
0
10
159.516634375
20
11.01724375
30
0
0
SEQEND
0
POLYLINE
66
1
8
1_copper
10
0.0
20
0.0
30
0.0
70
1
0
VERTEX
8
0
10
3.6783625
20
11.01724375
30
0
0
VERTEX
8
0
10
3.6950156250000004
20
11.1863375
30
0
0
VERTEX
8
0
10
3.75685
20
11.497200000000001
30
0
0
VERTEX
8
0
10
3.848853125
20
11.800490625
30
0
0
VERTEX
8
0
10
3.97014375
20
12.093315625
30
0
0
VERTEX
8
0
10
4.119559375000001
20
12.372853125
30
0
0
VERTEX
8
0
10
4.2956375
20
12.636375000000001
30
0
0
VERTEX
8
0
10
4.496709375
20
12.881378125000001
30
0
0
VERTEX
8
0
10
4.72081875
20
13.1054875
30
0
0
VERTEX
8
0
10
4.9658218750000005
20
13.306559375
30
0
0
VERTEX
8
0
10
5.22934375
20
13.482637500000001
30
0
0
VERTEX
8
0
10
5.50888125
20
13.632053125
30
0
0
VERTEX
8
0
10
5.8017062500000005
20
13.75334375
30
0
0
VERTEX
8
0
10
6.104996875
20
13.845346875
30
0
0
VERTEX
8
0
10
6.415859375
20
13.90718125
30
0
0
VERTEX
8
0
10
6.58495
20
13.923834375
30
0
0
VERTEX
8
0
10
6.58495
20
11.01724375
30
0
0
SEQEND
0
POLYLINE
66
1
8
1_copper
10
0.0
20
0.0
30
0.0
70
1
0
VERTEX
8
0
10
7.19454375
20
11.01724375
30
0
0
VERTEX
8
0
10
7.19454375
20
13.923834375
30
0
0
VERTEX
8
0
10
7.3636375
20
13.90718125
30
0
0
VERTEX
8
0
10
7.6745
20
13.845346875
30
0
0
VERTEX
8
0
10
7.977790625000001
20
13.75334375
30
0
0
VERTEX
8
0
10
8.270615625
20
13.632053125
30
0
0
VERTEX
8
0
10
8.550153125
20
13.482637500000001
30
0
0
VERTEX
8
0
10
8.813675
20
13.306559375
30
0
0
VERTEX
8
0
10
9.058678125
20
13.1054875
30
0
0
VERTEX
8
0
10
9.282787500000001
20
12.881378125000001
30
0
0
VERTEX
8
0
10
9.483859375
20
12.636375000000001
30
0
0
VERTEX
8
0
10
9.6599375
20
12.372853125
30
0
0
VERTEX
8
0
10
9.809353125000001
20
12.093315625
30
0
0
VERTEX
8
0
10
9.93064375
20
11.800490625
30
0
0
VERTEX
8
0
10
10.022646875000001
20
11.497200000000001
30
0
0
VERTEX
8
0
10
10.08448125
20
11.1863375
30
0
0
VERTEX
8
0
10
10.101134375
20
11.01724375
30
0
0
SEQEND
0
POLYLINE
66
1
8
1_copper
10
0.0
20
0.0
30
0.0
70
1
0
VERTEX
8
0
10
21.6488625
20
11.01724375
30
0
0
VERTEX
8
0
10
21.665515625
20
11.1863375
30
0
0
VERTEX
8
0
10
21.72735
20
11.497200000000001
30
0
0
VERTEX
8
0
10
21.819353125000003
20
11.800490625
30
0
0
VERTEX
8
0
10
21.94064375
20
12.093315625
30
0
0
VERTEX
8
0
10
22.090059375000003
20
12.372853125
30
0
0
VERTEX
8
0
10
22.266137500000003
20
12.636375000000001
30
0
0
VERTEX
8
0
10
22.467209375
20
12.881378125000001
30
0
0
VERTEX
8
0
10
22.69131875
20
13.1054875
30
0
0
VERTEX
8
0
10
22.936321875
20
13.306559375
30
0
0
VERTEX
8
0
10
23.19984375
20
13.482637500000001
30
0
0
VERTEX
8
0
10
23.47938125
20
13.632053125
30
0
0
VERTEX
8
0
10
23.77220625
20
13.75334375
30
0
0
VERTEX
8
0
10
24.075496875000002
20
13.845346875
30
0
0
VERTEX
8
0
10
24.386359375
20
13.90718125
30
0
0
VERTEX
8
0
10
24.55545
20
13.923834375
30
0
0
VERTEX
8
0
10
24.55545
20
11.01724375
30
0
0
SEQEND
0
POLYLINE
66
1
8
1_copper
10
0.0
20
0.0
30
0.0
70
1
0
VERTEX
8
0
10
25.165043750000002
20
11.01724375
30
0
0
VERTEX
8
0
10
25.165043750000002
20
13.923834375
30
0
0
VERTEX
8
0
10
25.3341375
20
13.90718125
30
0
0
VERTEX
8
0
10
25.645
20
13.845346875
30
0
0
VERTEX
8
0
10
25.948290625000002
20
13.75334375
30
0
0
VERTEX
8
0
10
26.241115625000003
20
13.632053125
30
0
0
VERTEX
8
0
10
26.520653125000003
20
13.482637500000001
30
0
0
VERTEX
8
0
10
26.784175
20
13.306559375
30
0
0
VERTEX
8
0
10
27.029178125
20
13.1054875
30
0
0
VERTEX
8
0
10
27.253287500000003
20
12.881378125000001
30
0
0
VERTEX
8
0
10
27.454359375000003
20
12.636375000000001
30
0
0
VERTEX
8
0
10
27.630437500000003
20
12.372853125
30
0
0
VERTEX
8
0
10
27.779853125000002
20
12.093315625
30
0
0
VERTEX
8
0
10
27.901143750000003
20
11.800490625
30
0
0
VERTEX
8
0
10
27.993146875
20
11.497200000000001
30
0
0
VERTEX
8
0
10
28.05498125
20
11.1863375
30
0
0
VERTEX
8
0
10
28.071634375000002
20
11.01724375
30
0
0
SEQEND
0
POLYLINE
66
1
8
1_copper
10
0.0
20
0.0
30
0.0
70
1
0
VERTEX
8
0
10
53.843362500000005
20
11.01724375
30
0
0
VERTEX
8
0
10
53.860015625
20
11.1863375
30
0
0
VERTEX
8
0
10
53.92185
20
11.497200000000001
30
0
0
VERTEX
8
0
10
54.013853125000004
20
11.800490625
30
0
0
VERTEX
8
0
10
54.135143750000005
20
12.093315625
30
0
0
VERTEX
8
0
10
54.284559375
20
12.372853125
30
0
0
VERTEX
8
0
10
54.460637500000004
20
12.636375000000001
30
0
0
VERTEX
8
0
10
54.661709375
20
12.881378125000001
30
0
0
VERTEX
8
0
10
54.885818750000006
20
13.1054875
30
0
0
VERTEX
8
0
10
55.130821875
20
13.306559375
30
0
0
VERTEX
8
0
10
55.394343750000004
20
13.482637500000001
30
0
0
VERTEX
8
0
10
55.67388125
20
13.632053125
30
0
0
VERTEX
8
0
10
55.96670625
20
13.75334375
30
0
0
VERTEX
8
0
10
56.269996875000004
20
13.845346875
30
0
0
VERTEX
8
0
10
56.580859375
20
13.90718125
30
0
0
VERTEX
8
0
10
56.749950000000005
20
13.923834375
30
0
0
VERTEX
8
0
10
56.749950000000005
20
11.01724375
30
0
0
SEQEND
0
POLYLINE
66
1
8
1_copper
10
0.0
20
0.0
30
0.0
70
1
0
VERTEX
8
0
10
71.8138625
20
11.01724375
30
0
0
VERTEX
8
0
10
71.830515625
20
11.1863375
30
0
0
VERTEX
8
0
10
71.89235000000001
20
11.497200000000001
30
0
0
VERTEX
8
0
10
71.984353125
20
11.800490625
30
0
0
VERTEX
8
0
10
72.10564375
20
12.093315625
30
0
0
VERTEX
8
0
10
72.255059375
20
12.372853125
30
0
0
VERTEX
8
0
10
72.4311375
20
12.636375000000001
30
0
0
VERTEX
8
0
10
72.632209375
20
12.881378125000001
30
0
0
VERTEX
8
0
10
72.85631875
20
13.1054875
30
0
0
VERTEX
8
0
10
73.101321875
20
13.306559375
30
0
0
VERTEX
8
0
10
73.36484375
20
13.482637500000001
30
0
0
VERTEX
8
0
10
73.64438125000001
20
13.632053125
30
0
0
VERTEX
8
0
10
73.93720625
20
13.75334375
30
0
0
VERTEX
8
0
10
74.240496875
20
13.845346875
30
0
0
VERTEX
8
0
10
74.551359375
20
13.90718125
30
0
0
VERTEX
8
0
10
74.72045
20
13.923834375
30
0
0
VERTEX
8
0
10
74.72045
20
11.01724375
30
0
0
SEQEND
0
POLYLINE
66
1
8
1_copper
10
0.0
20
0.0
30
0.0
70
1
0
VERTEX
8
0
10
75.33004375
20
11.01724375
30
0
0
VERTEX
8
0
10
75.33004375
20
13.923834375
30
0
0
VERTEX
8
0
10
75.4991375
20
13.90718125
30
0
0
VERTEX
8
0
10
75.81
20
13.845346875
30
0
0
VERTEX
8
0
10
76.113290625
20
13.75334375
30
0
0
VERTEX
8
0
10
76.406115625
20
13.632053125
30
0
0
VERTEX
8
0
10
76.685653125
20
13.482637500000001
30
0
0
VERTEX
8
0
10
76.949175
20
13.306559375
30
0
0
VERTEX
8
0
10
77.19417812500001
20
13.1054875
30
0
0
VERTEX
8
0
10
77.4182875
20
12.881378125000001
30
0
0
VERTEX
8
0
10
77.619359375
20
12.636375000000001
30
0
0
VERTEX
8
0
10
77.7954375
20
12.372853125
30
0
0
VERTEX
8
0
10
77.94485312500001
20
12.093315625
30
0
0
VERTEX
8
0
10
78.06614375000001
20
11.800490625
30
0
0
VERTEX
8
0
10
78.158146875
20
11.497200000000001
30
0
0
VERTEX
8
0
10
78.21998125
20
11.1863375
30
0
0
VERTEX
8
0
10
78.23663437500001
20
11.01724375
30
0
0
SEQEND
0
POLYLINE
66
1
8
1_copper
10
0.0
20
0.0
30
0.0
70
1
0
VERTEX
8
0
10
84.9583625
20
11.01724375
30
0
0
VERTEX
8
0
10
84.975015625
20
11.1863375
30
0
0
VERTEX
8
0
10
85.03685
20
11.497200000000001
30
0
0
VERTEX
8
0
10
85.128853125
20
11.800490625
30
0
0
VERTEX
8
0
10
85.25014375
20
12.093315625
30
0
0
VERTEX
8
0
10
85.39955937500001
20
12.372853125
30
0
0
VERTEX
8
0
10
85.5756375
20
12.636375000000001
30
0
0
VERTEX
8
0
10
85.77670937500001
20
12.881378125000001
30
0
0
VERTEX
8
0
10
86.00081875000001
20
13.1054875
30
0
0
VERTEX
8
0
10
86.245821875
20
13.306559375
30
0
0
VERTEX
8
0
10
86.50934375
20
13.482637500000001
30
0
0
VERTEX
8
0
10
86.78888125
20
13.632053125
30
0
0
VERTEX
8
0
10
87.08170625000001
20
13.75334375
30
0
0
VERTEX
8
0
10
87.384996875
20
13.845346875
30
0
0
VERTEX
8
0
10
87.695859375
20
13.90718125
30
0
0
VERTEX
8
0
10
87.86495000000001
20
13.923834375
30
0
0
VERTEX
8
0
10
87.86495000000001
20
11.01724375
30
0
0
SEQEND
0
POLYLINE
66
1
8
1_copper
10
0.0
20
0.0
30
0.0
70
1
0
VERTEX
8
0
10
88.47454375000001
20
11.01724375
30
0
0
VERTEX
8
0
10
88.47454375000001
20
13.923834375
30
0
0
VERTEX
8
0
10
88.64363750000001
20
13.90718125
30
0
0
VERTEX
8
0
10
88.95450000000001
20
13.845346875
30
0
0
VERTEX
8
0
10
89.257790625
20
13.75334375
30
0
0
VERTEX
8
0
10
89.550615625
20
13.632053125
30
0
0
VERTEX
8
0
10
89.83015312500001
20
13.482637500000001
30
0
0
VERTEX
8
0
10
90.093675
20
13.306559375
30
0
0
VERTEX
8
0
10
90.338678125
20
13.1054875
30
0
0
VERTEX
8
0
10
90.5627875
20
12.881378125000001
30
0
0
VERTEX
8
0
10
90.76385937500001
20
12.636375000000001
30
0
0
VERTEX
8
0
10
90.9399375
20
12.372853125
30
0
0
VERTEX
8
0
10
91.089353125
20
12.093315625
30
0
0
VERTEX
8
0
10
91.21064375
20
11.800490625
30
0
0
VERTEX
8
0
10
91.30264687500001
20
11.497200000000001
30
0
0
VERTEX
8
0
10
91.36448125000001
20
11.1863375
30
0
0
VERTEX
8
0
10
91.381134375
20
11.01724375
30
0
0
SEQEND
0
POLYLINE
66
1
8
1_copper
10
0.0
20
0.0
30
0.0
70
1
0
VERTEX
8
0
10
102.92886250000001
20
11.01724375
30
0
0
VERTEX
8
0
10
102.945515625
20
11.1863375
30
0
0
VERTEX
8
0
10
103.00735
20
11.497200000000001
30
0
0
VERTEX
8
0
10
103.09935312500001
20
11.800490625
30
0
0
VERTEX
8
0
10
103.22064375000001
20
12.093315625
30
0
0
VERTEX
8
0
10
103.37005937500001
20
12.372853125
30
0
0
VERTEX
8
0
10
103.5461375
20
12.636375000000001
30
0
0
VERTEX
8
0
10
103.74720937500001
20
12.881378125000001
30
0
0
VERTEX
8
0
10
103.97131875000001
20
13.1054875
30
0
0
VERTEX
8
0
10
104.216321875
20
13.306559375
30
0
0
VERTEX
8
0
10
104.47984375
20
13.482637500000001
30
0
0
VERTEX
8
0
10
104.75938125
20
13.632053125
30
0
0
VERTEX
8
0
10
105.05220625000001
20
13.75334375
30
0
0
VERTEX
8
0
10
105.355496875
20
13.845346875
30
0
0
VERTEX
8
0
10
105.666359375
20
13.90718125
30
0
0
VERTEX
8
0
10
105.83545000000001
20
13.923834375
30
0
0
VERTEX
8
0
10
105.83545000000001
20
11.01724375
30
0
0
SEQEND
0
POLYLINE
66
1
8
1_copper
10
0.0
20
0.0
30
0.0
70
1
0
VERTEX
8
0
10
57.35954375
20
11.01724375
30
0
0
VERTEX
8
0
10
57.35954375
20
13.923834375
30
0
0
VERTEX
8
0
10
57.5286375
20
13.90718125
30
0
0
VERTEX
8
0
10
57.8395
20
13.845346875
30
0
0
VERTEX
8
0
10
58.142790625
20
13.75334375
30
0
0
VERTEX
8
0
10
58.435615625000004
20
13.632053125
30
0
0
VERTEX
8
0
10
58.715153125
20
13.482637500000001
30
0
0
VERTEX
8
0
10
58.978675
20
13.306559375
30
0
0
VERTEX
8
0
10
59.223678125000006
20
13.1054875
30
0
0
VERTEX
8
0
10
59.447787500000004
20
12.881378125000001
30
0
0
VERTEX
8
0
10
59.648859375
20
12.636375000000001
30
0
0
VERTEX
8
0
10
59.824937500000004
20
12.372853125
30
0
0
VERTEX
8
0
10
59.974353125
20
12.093315625
30
0
0
VERTEX
8
0
10
60.09564375
20
11.800490625
30
0
0
VERTEX
8
0
10
60.187646875000006
20
11.497200000000001
30
0
0
VERTEX
8
0
10
60.24948125
20
11.1863375
30
0
0
VERTEX
8
0
10
60.266134375
20
11.01724375
30
0
0
SEQEND
0
POLYLINE
66
1
8
1_copper
10
0.0
20
0.0
30
0.0
70
1
0
VERTEX
8
0
10
43.815000000000005
20
11.538946875
30
0
0
VERTEX
8
0
10
43.815000000000005
20
11.53895
30
0
0
VERTEX
8
0
10
44.55895
20
10.795
30
0
0
VERTEX
8
0
10
44.558946875000004
20
10.795
30
0
0
SEQEND
0
POLYLINE
66
1
8
1_copper
10
0.0
20
0.0
30
0.0
70
1
0
VERTEX
8
0
10
126.36500000000001
20
10.903946875
30
0
0
VERTEX
8
0
10
126.36500000000001
20
10.90395
30
0
0
VERTEX
8
0
10
127.10895000000001
20
10.16
30
0
0
VERTEX
8
0
10
127.108946875
20
10.16
30
0
0
SEQEND
0
POLYLINE
66
1
8
1_copper
10
0.0
20
0.0
30
0.0
70
1
0
VERTEX
8
0
10
156.305234375
20
10.712434375
30
0
0
VERTEX
8
0
10
156.305234375
20
10.7124625
30
0
0
VERTEX
8
0
10
156.3052625
20
10.7124625
30
0
0
VERTEX
8
0
10
156.3052625
20
10.712434375
30
0
0
SEQEND
0
POLYLINE
66
1
8
1_copper
10
0.0
20
0.0
30
0.0
70
1
0
VERTEX
8
0
10
138.334734375
20
10.712434375
30
0
0
VERTEX
8
0
10
138.334734375
20
10.7124625
30
0
0
VERTEX
8
0
10
138.3347625
20
10.7124625
30
0
0
VERTEX
8
0
10
138.3347625
20
10.712434375
30
0
0
SEQEND
0
POLYLINE
66
1
8
1_copper
10
0.0
20
0.0
30
0.0
70
1
0
VERTEX
8
0
10
106.140234375
20
10.712434375
30
0
0
VERTEX
8
0
10
106.140234375
20
10.7124625
30
0
0
VERTEX
8
0
10
106.1402625
20
10.7124625
30
0
0
VERTEX
8
0
10
106.1402625
20
10.712434375
30
0
0
SEQEND
0
POLYLINE
66
1
8
1_copper
10
0.0
20
0.0
30
0.0
70
1
0
VERTEX
8
0
10
88.169734375
20
10.712434375
30
0
0
VERTEX
8
0
10
88.169734375
20
10.7124625
30
0
0
VERTEX
8
0
10
88.1697625
20
10.7124625
30
0
0
VERTEX
8
0
10
88.1697625
20
10.712434375
30
0
0
SEQEND
0
POLYLINE
66
1
8
1_copper
10
0.0
20
0.0
30
0.0
70
1
0
VERTEX
8
0
10
75.025234375
20
10.712434375
30
0
0
VERTEX
8
0
10
75.025234375
20
10.7124625
30
0
0
VERTEX
8
0
10
75.0252625
20
10.7124625
30
0
0
VERTEX
8
0
10
75.0252625
20
10.712434375
30
0
0
SEQEND
0
POLYLINE
66
1
8
1_copper
10
0.0
20
0.0
30
0.0
70
1
0
VERTEX
8
0
10
24.860234375
20
10.712434375
30
0
0
VERTEX
8
0
10
24.860234375
20
10.7124625
30
0
0
VERTEX
8
0
10
24.8602625
20
10.7124625
30
0
0
VERTEX
8
0
10
24.8602625
20
10.712434375
30
0
0
SEQEND
0
POLYLINE
66
1
8
1_copper
10
0.0
20
0.0
30
0.0
70
1
0
VERTEX
8
0
10
6.889734375000001
20
10.712434375
30
0
0
VERTEX
8
0
10
6.889734375000001
20
10.7124625
30
0
0
VERTEX
8
0
10
6.889762500000001
20
10.7124625
30
0
0
VERTEX
8
0
10
6.889762500000001
20
10.712434375
30
0
0
SEQEND
0
POLYLINE
66
1
8
1_copper
10
0.0
20
0.0
30
0.0
70
1
0
VERTEX
8
0
10
57.054734375
20
10.712434375
30
0
0
VERTEX
8
0
10
57.054734375
20
10.7124625
30
0
0
VERTEX
8
0
10
57.0547625
20
10.7124625
30
0
0
VERTEX
8
0
10
57.0547625
20
10.712434375
30
0
0
SEQEND
0
POLYLINE
66
1
8
1_copper
10
0.0
20
0.0
30
0.0
70
1
0
VERTEX
8
0
10
6.415859375
20
7.517715625
30
0
0
VERTEX
8
0
10
6.104996875
20
7.57955
30
0
0
VERTEX
8
0
10
5.8017062500000005
20
7.671553125
30
0
0
VERTEX
8
0
10
5.50888125
20
7.79284375
30
0
0
VERTEX
8
0
10
5.22934375
20
7.942259375000001
30
0
0
VERTEX
8
0
10
4.9658218750000005
20
8.1183375
30
0
0
VERTEX
8
0
10
4.72081875
20
8.319409375000001
30
0
0
VERTEX
8
0
10
4.496709375
20
8.54351875
30
0
0
VERTEX
8
0
10
4.2956375
20
8.788521875
30
0
0
VERTEX
8
0
10
4.119559375000001
20
9.052043750000001
30
0
0
VERTEX
8
0
10
3.97014375
20
9.331581250000001
30
0
0
VERTEX
8
0
10
3.848853125
20
9.62440625
30
0
0
VERTEX
8
0
10
3.75685
20
9.927696875
30
0
0
VERTEX
8
0
10
3.6950156250000004
20
10.238559375000001
30
0
0
VERTEX
8
0
10
3.6783625
20
10.40765
30
0
0
VERTEX
8
0
10
6.58495
20
10.40765
30
0
0
VERTEX
8
0
10
6.58495
20
7.501062500000001
30
0
0
SEQEND
0
POLYLINE
66
1
8
1_copper
10
0.0
20
0.0
30
0.0
70
1
0
VERTEX
8
0
10
156.61004375000002
20
10.40765
30
0
0
VERTEX
8
0
10
159.516634375
20
10.40765
30
0
0
VERTEX
8
0
10
159.49998125000002
20
10.238559375000001
30
0
0
VERTEX
8
0
10
159.438146875
20
9.927696875
30
0
0
VERTEX
8
0
10
159.34614375
20
9.62440625
30
0
0
VERTEX
8
0
10
159.224853125
20
9.331581250000001
30
0
0
VERTEX
8
0
10
159.07543750000002
20
9.052043750000001
30
0
0
VERTEX
8
0
10
158.89935937500002
20
8.788521875
30
0
0
VERTEX
8
0
10
158.69828750000002
20
8.54351875
30
0
0
VERTEX
8
0
10
158.474178125
20
8.319409375000001
30
0
0
VERTEX
8
0
10
158.229175
20
8.1183375
30
0
0
VERTEX
8
0
10
157.96565312500002
20
7.942259375000001
30
0
0
VERTEX
8
0
10
157.686115625
20
7.79284375
30
0
0
VERTEX
8
0
10
157.39329062500002
20
7.671553125
30
0
0
VERTEX
8
0
10
157.09
20
7.57955
30
0
0
VERTEX
8
0
10
156.77913750000002
20
7.517715625
30
0
0
VERTEX
8
0
10
156.61004375000002
20
7.501062500000001
30
0
0
SEQEND
0
POLYLINE
66
1
8
1_copper
10
0.0
20
0.0
30
0.0
70
1
0
VERTEX
8
0
10
155.831359375
20
7.517715625
30
0
0
VERTEX
8
0
10
155.52049687500002
20
7.57955
30
0
0
VERTEX
8
0
10
155.21720625
20
7.671553125
30
0
0
VERTEX
8
0
10
154.92438125
20
7.79284375
30
0
0
VERTEX
8
0
10
154.64484375
20
7.942259375000001
30
0
0
VERTEX
8
0
10
154.381321875
20
8.1183375
30
0
0
VERTEX
8
0
10
154.13631875000002
20
8.319409375000001
30
0
0
VERTEX
8
0
10
153.912209375
20
8.54351875
30
0
0
VERTEX
8
0
10
153.7111375
20
8.788521875
30
0
0
VERTEX
8
0
10
153.535059375
20
9.052043750000001
30
0
0
VERTEX
8
0
10
153.38564375
20
9.331581250000001
30
0
0
VERTEX
8
0
10
153.264353125
20
9.62440625
30
0
0
VERTEX
8
0
10
153.17235
20
9.927696875
30
0
0
VERTEX
8
0
10
153.110515625
20
10.238559375000001
30
0
0
VERTEX
8
0
10
153.0938625
20
10.40765
30
0
0
VERTEX
8
0
10
156.00045
20
10.40765
30
0
0
VERTEX
8
0
10
156.00045
20
7.501062500000001
30
0
0
SEQEND
0
POLYLINE
66
1
8
1_copper
10
0.0
20
0.0
30
0.0
70
1
0
VERTEX
8
0
10
138.63954375
20
10.40765
30
0
0
VERTEX
8
0
10
141.546134375
20
10.40765
30
0
0
VERTEX
8
0
10
141.52948125
20
10.238559375000001
30
0
0
VERTEX
8
0
10
141.467646875
20
9.927696875
30
0
0
VERTEX
8
0
10
141.37564375
20
9.62440625
30
0
0
VERTEX
8
0
10
141.254353125
20
9.331581250000001
30
0
0
VERTEX
8
0
10
141.1049375
20
9.052043750000001
30
0
0
VERTEX
8
0
10
140.928859375
20
8.788521875
30
0
0
VERTEX
8
0
10
140.7277875
20
8.54351875
30
0
0
VERTEX
8
0
10
140.503678125
20
8.319409375000001
30
0
0
VERTEX
8
0
10
140.258675
20
8.1183375
30
0
0
VERTEX
8
0
10
139.995153125
20
7.942259375000001
30
0
0
VERTEX
8
0
10
139.715615625
20
7.79284375
30
0
0
VERTEX
8
0
10
139.422790625
20
7.671553125
30
0
0
VERTEX
8
0
10
139.11950000000002
20
7.57955
30
0
0
VERTEX
8
0
10
138.8086375
20
7.517715625
30
0
0
VERTEX
8
0
10
138.63954375
20
7.501062500000001
30
0
0
SEQEND
0
POLYLINE
66
1
8
1_copper
10
0.0
20
0.0
30
0.0
70
1
0
VERTEX
8
0
10
137.86085937500002
20
7.517715625
30
0
0
VERTEX
8
0
10
137.549996875
20
7.57955
30
0
0
VERTEX
8
0
10
137.24670625000002
20
7.671553125
30
0
0
VERTEX
8
0
10
136.95388125
20
7.79284375
30
0
0
VERTEX
8
0
10
136.67434375000002
20
7.942259375000001
30
0
0
VERTEX
8
0
10
136.410821875
20
8.1183375
30
0
0
VERTEX
8
0
10
136.16581875
20
8.319409375000001
30
0
0
VERTEX
8
0
10
135.94170937500002
20
8.54351875
30
0
0
VERTEX
8
0
10
135.74063750000002
20
8.788521875
30
0
0
VERTEX
8
0
10
135.56455937500002
20
9.052043750000001
30
0
0
VERTEX
8
0
10
135.41514375
20
9.331581250000001
30
0
0
VERTEX
8
0
10
135.293853125
20
9.62440625
30
0
0
VERTEX
8
0
10
135.20185
20
9.927696875
30
0
0
VERTEX
8
0
10
135.14001562500002
20
10.238559375000001
30
0
0
VERTEX
8
0
10
135.1233625
20
10.40765
30
0
0
VERTEX
8
0
10
138.02995
20
10.40765
30
0
0
VERTEX
8
0
10
138.02995
20
7.501062500000001
30
0
0
SEQEND
0
POLYLINE
66
1
8
1_copper
10
0.0
20
0.0
30
0.0
70
1
0
VERTEX
8
0
10
106.44504375000001
20
10.40765
30
0
0
VERTEX
8
0
10
109.351634375
20
10.40765
30
0
0
VERTEX
8
0
10
109.33498125
20
10.238559375000001
30
0
0
VERTEX
8
0
10
109.27314687500001
20
9.927696875
30
0
0
VERTEX
8
0
10
109.18114375
20
9.62440625
30
0
0
VERTEX
8
0
10
109.059853125
20
9.331581250000001
30
0
0
VERTEX
8
0
10
108.9104375
20
9.052043750000001
30
0
0
VERTEX
8
0
10
108.73435937500001
20
8.788521875
30
0
0
VERTEX
8
0
10
108.5332875
20
8.54351875
30
0
0
VERTEX
8
0
10
108.309178125
20
8.319409375000001
30
0
0
VERTEX
8
0
10
108.064175
20
8.1183375
30
0
0
VERTEX
8
0
10
107.80065312500001
20
7.942259375000001
30
0
0
VERTEX
8
0
10
107.52111562500001
20
7.79284375
30
0
0
VERTEX
8
0
10
107.228290625
20
7.671553125
30
0
0
VERTEX
8
0
10
106.92500000000001
20
7.57955
30
0
0
VERTEX
8
0
10
106.6141375
20
7.517715625
30
0
0
VERTEX
8
0
10
106.44504375000001
20
7.501062500000001
30
0
0
SEQEND
0
POLYLINE
66
1
8
1_copper
10
0.0
20
0.0
30
0.0
70
1
0
VERTEX
8
0
10
105.666359375
20
7.517715625
30
0
0
VERTEX
8
0
10
105.355496875
20
7.57955
30
0
0
VERTEX
8
0
10
105.05220625000001
20
7.671553125
30
0
0
VERTEX
8
0
10
104.75938125
20
7.79284375
30
0
0
VERTEX
8
0
10
104.47984375
20
7.942259375000001
30
0
0
VERTEX
8
0
10
104.216321875
20
8.1183375
30
0
0
VERTEX
8
0
10
103.97131875000001
20
8.319409375000001
30
0
0
VERTEX
8
0
10
103.74720937500001
20
8.54351875
30
0
0
VERTEX
8
0
10
103.5461375
20
8.788521875
30
0
0
VERTEX
8
0
10
103.37005937500001
20
9.052043750000001
30
0
0
VERTEX
8
0
10
103.22064375000001
20
9.331581250000001
30
0
0
VERTEX
8
0
10
103.09935312500001
20
9.62440625
30
0
0
VERTEX
8
0
10
103.00735
20
9.927696875
30
0
0
VERTEX
8
0
10
102.945515625
20
10.238559375000001
30
0
0
VERTEX
8
0
10
102.92886250000001
20
10.40765
30
0
0
VERTEX
8
0
10
105.83545000000001
20
10.40765
30
0
0
VERTEX
8
0
10
105.83545000000001
20
7.501062500000001
30
0
0
SEQEND
0
POLYLINE
66
1
8
1_copper
10
0.0
20
0.0
30
0.0
70
1
0
VERTEX
8
0
10
25.165043750000002
20
10.40765
30
0
0
VERTEX
8
0
10
28.071634375000002
20
10.40765
30
0
0
VERTEX
8
0
10
28.05498125
20
10.238559375000001
30
0
0
VERTEX
8
0
10
27.993146875
20
9.927696875
30
0
0
VERTEX
8
0
10
27.901143750000003
20
9.62440625
30
0
0
VERTEX
8
0
10
27.779853125000002
20
9.331581250000001
30
0
0
VERTEX
8
0
10
27.630437500000003
20
9.052043750000001
30
0
0
VERTEX
8
0
10
27.454359375000003
20
8.788521875
30
0
0
VERTEX
8
0
10
27.253287500000003
20
8.54351875
30
0
0
VERTEX
8
0
10
27.029178125
20
8.319409375000001
30
0
0
VERTEX
8
0
10
26.784175
20
8.1183375
30
0
0
VERTEX
8
0
10
26.520653125000003
20
7.942259375000001
30
0
0
VERTEX
8
0
10
26.241115625000003
20
7.79284375
30
0
0
VERTEX
8
0
10
25.948290625000002
20
7.671553125
30
0
0
VERTEX
8
0
10
25.645
20
7.57955
30
0
0
VERTEX
8
0
10
25.3341375
20
7.517715625
30
0
0
VERTEX
8
0
10
25.165043750000002
20
7.501062500000001
30
0
0
SEQEND
0
POLYLINE
66
1
8
1_copper
10
0.0
20
0.0
30
0.0
70
1
0
VERTEX
8
0
10
56.580859375
20
7.517715625
30
0
0
VERTEX
8
0
10
56.269996875000004
20
7.57955
30
0
0
VERTEX
8
0
10
55.96670625
20
7.671553125
30
0
0
VERTEX
8
0
10
55.67388125
20
7.79284375
30
0
0
VERTEX
8
0
10
55.394343750000004
20
7.942259375000001
30
0
0
VERTEX
8
0
10
55.130821875
20
8.1183375
30
0
0
VERTEX
8
0
10
54.885818750000006
20
8.319409375000001
30
0
0
VERTEX
8
0
10
54.661709375
20
8.54351875
30
0
0
VERTEX
8
0
10
54.460637500000004
20
8.788521875
30
0
0
VERTEX
8
0
10
54.284559375
20
9.052043750000001
30
0
0
VERTEX
8
0
10
54.135143750000005
20
9.331581250000001
30
0
0
VERTEX
8
0
10
54.013853125000004
20
9.62440625
30
0
0
VERTEX
8
0
10
53.92185
20
9.927696875
30
0
0
VERTEX
8
0
10
53.860015625
20
10.238559375000001
30
0
0
VERTEX
8
0
10
53.843362500000005
20
10.40765
30
0
0
VERTEX
8
0
10
56.749950000000005
20
10.40765
30
0
0
VERTEX
8
0
10
56.749950000000005
20
7.501062500000001
30
0
0
SEQEND
0
POLYLINE
66
1
8
1_copper
10
0.0
20
0.0
30
0.0
70
1
0
VERTEX
8
0
10
57.35954375
20
10.40765
30
0
0
VERTEX
8
0
10
60.266134375
20
10.40765
30
0
0
VERTEX
8
0
10
60.24948125
20
10.238559375000001
30
0
0
VERTEX
8
0
10
60.187646875000006
20
9.927696875
30
0
0
VERTEX
8
0
10
60.09564375
20
9.62440625
30
0
0
VERTEX
8
0
10
59.974353125
20
9.331581250000001
30
0
0
VERTEX
8
0
10
59.824937500000004
20
9.052043750000001
30
0
0
VERTEX
8
0
10
59.648859375
20
8.788521875
30
0
0
VERTEX
8
0
10
59.447787500000004
20
8.54351875
30
0
0
VERTEX
8
0
10
59.223678125000006
20
8.319409375000001
30
0
0
VERTEX
8
0
10
58.978675
20
8.1183375
30
0
0
VERTEX
8
0
10
58.715153125
20
7.942259375000001
30
0
0
VERTEX
8
0
10
58.435615625000004
20
7.79284375
30
0
0
VERTEX
8
0
10
58.142790625
20
7.671553125
30
0
0
VERTEX
8
0
10
57.8395
20
7.57955
30
0
0
VERTEX
8
0
10
57.5286375
20
7.517715625
30
0
0
VERTEX
8
0
10
57.35954375
20
7.501062500000001
30
0
0
SEQEND
0
POLYLINE
66
1
8
1_copper
10
0.0
20
0.0
30
0.0
70
1
0
VERTEX
8
0
10
74.551359375
20
7.517715625
30
0
0
VERTEX
8
0
10
74.240496875
20
7.57955
30
0
0
VERTEX
8
0
10
73.93720625
20
7.671553125
30
0
0
VERTEX
8
0
10
73.64438125000001
20
7.79284375
30
0
0
VERTEX
8
0
10
73.36484375
20
7.942259375000001
30
0
0
VERTEX
8
0
10
73.101321875
20
8.1183375
30
0
0
VERTEX
8
0
10
72.85631875
20
8.319409375000001
30
0
0
VERTEX
8
0
10
72.632209375
20
8.54351875
30
0
0
VERTEX
8
0
10
72.4311375
20
8.788521875
30
0
0
VERTEX
8
0
10
72.255059375
20
9.052043750000001
30
0
0
VERTEX
8
0
10
72.10564375
20
9.331581250000001
30
0
0
VERTEX
8
0
10
71.984353125
20
9.62440625
30
0
0
VERTEX
8
0
10
71.89235000000001
20
9.927696875
30
0
0
VERTEX
8
0
10
71.830515625
20
10.238559375000001
30
0
0
VERTEX
8
0
10
71.8138625
20
10.40765
30
0
0
VERTEX
8
0
10
74.72045
20
10.40765
30
0
0
VERTEX
8
0
10
74.72045
20
7.501062500000001
30
0
0
SEQEND
0
POLYLINE
66
1
8
1_copper
10
0.0
20
0.0
30
0.0
70
1
0
VERTEX
8
0
10
24.386359375
20
7.517715625
30
0
0
VERTEX
8
0
10
24.075496875000002
20
7.57955
30
0
0
VERTEX
8
0
10
23.77220625
20
7.671553125
30
0
0
VERTEX
8
0
10
23.47938125
20
7.79284375
30
0
0
VERTEX
8
0
10
23.19984375
20
7.942259375000001
30
0
0
VERTEX
8
0
10
22.936321875
20
8.1183375
30
0
0
VERTEX
8
0
10
22.69131875
20
8.319409375000001
30
0
0
VERTEX
8
0
10
22.467209375
20
8.54351875
30
0
0
VERTEX
8
0
10
22.266137500000003
20
8.788521875
30
0
0
VERTEX
8
0
10
22.090059375000003
20
9.052043750000001
30
0
0
VERTEX
8
0
10
21.94064375
20
9.331581250000001
30
0
0
VERTEX
8
0
10
21.819353125000003
20
9.62440625
30
0
0
VERTEX
8
0
10
21.72735
20
9.927696875
30
0
0
VERTEX
8
0
10
21.665515625
20
10.238559375000001
30
0
0
VERTEX
8
0
10
21.6488625
20
10.40765
30
0
0
VERTEX
8
0
10
24.55545
20
10.40765
30
0
0
VERTEX
8
0
10
24.55545
20
7.501062500000001
30
0
0
SEQEND
0
POLYLINE
66
1
8
1_copper
10
0.0
20
0.0
30
0.0
70
1
0
VERTEX
8
0
10
75.33004375
20
10.40765
30
0
0
VERTEX
8
0
10
78.23663437500001
20
10.40765
30
0
0
VERTEX
8
0
10
78.21998125
20
10.238559375000001
30
0
0
VERTEX
8
0
10
78.158146875
20
9.927696875
30
0
0
VERTEX
8
0
10
78.06614375000001
20
9.62440625
30
0
0
VERTEX
8
0
10
77.94485312500001
20
9.331581250000001
30
0
0
VERTEX
8
0
10
77.7954375
20
9.052043750000001
30
0
0
VERTEX
8
0
10
77.619359375
20
8.788521875
30
0
0
VERTEX
8
0
10
77.4182875
20
8.54351875
30
0
0
VERTEX
8
0
10
77.19417812500001
20
8.319409375000001
30
0
0
VERTEX
8
0
10
76.949175
20
8.1183375
30
0
0
VERTEX
8
0
10
76.685653125
20
7.942259375000001
30
0
0
VERTEX
8
0
10
76.406115625
20
7.79284375
30
0
0
VERTEX
8
0
10
76.113290625
20
7.671553125
30
0
0
VERTEX
8
0
10
75.81
20
7.57955
30
0
0
VERTEX
8
0
10
75.4991375
20
7.517715625
30
0
0
VERTEX
8
0
10
75.33004375
20
7.501062500000001
30
0
0
SEQEND
0
POLYLINE
66
1
8
1_copper
10
0.0
20
0.0
30
0.0
70
1
0
VERTEX
8
0
10
87.695859375
20
7.517715625
30
0
0
VERTEX
8
0
10
87.384996875
20
7.57955
30
0
0
VERTEX
8
0
10
87.08170625000001
20
7.671553125
30
0
0
VERTEX
8
0
10
86.78888125
20
7.79284375
30
0
0
VERTEX
8
0
10
86.50934375
20
7.942259375000001
30
0
0
VERTEX
8
0
10
86.245821875
20
8.1183375
30
0
0
VERTEX
8
0
10
86.00081875000001
20
8.319409375000001
30
0
0
VERTEX
8
0
10
85.77670937500001
20
8.54351875
30
0
0
VERTEX
8
0
10
85.5756375
20
8.788521875
30
0
0
VERTEX
8
0
10
85.39955937500001
20
9.052043750000001
30
0
0
VERTEX
8
0
10
85.25014375
20
9.331581250000001
30
0
0
VERTEX
8
0
10
85.128853125
20
9.62440625
30
0
0
VERTEX
8
0
10
85.03685
20
9.927696875
30
0
0
VERTEX
8
0
10
84.975015625
20
10.238559375000001
30
0
0
VERTEX
8
0
10
84.9583625
20
10.40765
30
0
0
VERTEX
8
0
10
87.86495000000001
20
10.40765
30
0
0
VERTEX
8
0
10
87.86495000000001
20
7.501062500000001
30
0
0
SEQEND
0
POLYLINE
66
1
8
1_copper
10
0.0
20
0.0
30
0.0
70
1
0
VERTEX
8
0
10
88.47454375000001
20
10.40765
30
0
0
VERTEX
8
0
10
91.381134375
20
10.40765
30
0
0
VERTEX
8
0
10
91.36448125000001
20
10.238559375000001
30
0
0
VERTEX
8
0
10
91.30264687500001
20
9.927696875
30
0
0
VERTEX
8
0
10
91.21064375
20
9.62440625
30
0
0
VERTEX
8
0
10
91.089353125
20
9.331581250000001
30
0
0
VERTEX
8
0
10
90.9399375
20
9.052043750000001
30
0
0
VERTEX
8
0
10
90.76385937500001
20
8.788521875
30
0
0
VERTEX
8
0
10
90.5627875
20
8.54351875
30
0
0
VERTEX
8
0
10
90.338678125
20
8.319409375000001
30
0
0
VERTEX
8
0
10
90.093675
20
8.1183375
30
0
0
VERTEX
8
0
10
89.83015312500001
20
7.942259375000001
30
0
0
VERTEX
8
0
10
89.550615625
20
7.79284375
30
0
0
VERTEX
8
0
10
89.257790625
20
7.671553125
30
0
0
VERTEX
8
0
10
88.95450000000001
20
7.57955
30
0
0
VERTEX
8
0
10
88.64363750000001
20
7.517715625
30
0
0
VERTEX
8
0
10
88.47454375000001
20
7.501062500000001
30
0
0
SEQEND
0
POLYLINE
66
1
8
1_copper
10
0.0
20
0.0
30
0.0
70
1
0
VERTEX
8
0
10
7.19454375
20
10.40765
30
0
0
VERTEX
8
0
10
10.101134375
20
10.40765
30
0
0
VERTEX
8
0
10
10.08448125
20
10.238559375000001
30
0
0
VERTEX
8
0
10
10.022646875000001
20
9.927696875
30
0
0
VERTEX
8
0
10
9.93064375
20
9.62440625
30
0
0
VERTEX
8
0
10
9.809353125000001
20
9.331581250000001
30
0
0
VERTEX
8
0
10
9.6599375
20
9.052043750000001
30
0
0
VERTEX
8
0
10
9.483859375
20
8.788521875
30
0
0
VERTEX
8
0
10
9.282787500000001
20
8.54351875
30
0
0
VERTEX
8
0
10
9.058678125
20
8.319409375000001
30
0
0
VERTEX
8
0
10
8.813675
20
8.1183375
30
0
0
VERTEX
8
0
10
8.550153125
20
7.942259375000001
30
0
0
VERTEX
8
0
10
8.270615625
20
7.79284375
30
0
0
VERTEX
8
0
10
7.977790625000001
20
7.671553125
30
0
0
VERTEX
8
0
10
7.6745
20
7.57955
30
0
0
VERTEX
8
0
10
7.3636375
20
7.517715625
30
0
0
VERTEX
8
0
10
7.19454375
20
7.501062500000001
30
0
0
SEQEND
0
POLYLINE
66
1
8
1_copper
10
0.0
20
0.0
30
0.0
70
1
0
VERTEX
8
0
10
43.1546
20
6.0764531250000005
30
0
0
VERTEX
8
0
10
43.1546
20
6.076456250000001
30
0
0
VERTEX
8
0
10
43.54145625
20
5.6896
30
0
0
VERTEX
8
0
10
43.541453125000004
20
5.6896
30
0
0
SEQEND
0
POLYLINE
66
1
8
1_copper
10
0.0
20
0.0
30
0.0
70
1
0
VERTEX
8
0
10
125.7046
20
6.0764531250000005
30
0
0
VERTEX
8
0
10
125.7046
20
6.076456250000001
30
0
0
VERTEX
8
0
10
126.09145625000001
20
5.6896
30
0
0
VERTEX
8
0
10
126.091453125
20
5.6896
30
0
0
SEQEND
0
POLYLINE
66
1
8
1_copper
10
0.0
20
0.0
30
0.0
70
1
0
VERTEX
8
0
10
55.0799
20
57.453587500000005
30
0
0
VERTEX
8
0
10
55.0799
20
57.453590625000004
30
0
0
VERTEX
8
0
10
55.548590625
20
56.9849
30
0
0
VERTEX
8
0
10
55.548587500000004
20
56.9849
30
0
0
SEQEND
0
POLYLINE
66
1
8
16_copper
10
0.0
20
0.0
30
0.0
70
1
0
VERTEX
8
0
10
56.6801
20
57.453590625000004
30
0
0
VERTEX
8
0
10
56.6801
20
58.116409375
30
0
0
VERTEX
8
0
10
56.211409375
20
58.585100000000004
30
0
0
VERTEX
8
0
10
55.548590625
20
58.585100000000004
30
0
0
VERTEX
8
0
10
55.0799
20
58.116409375
30
0
0
VERTEX
8
0
10
55.0799
20
57.453590625000004
30
0
0
VERTEX
8
0
10
55.548590625
20
56.9849
30
0
0
VERTEX
8
0
10
56.211409375
20
56.9849
30
0
0
SEQEND
0
POLYLINE
66
1
8
16_copper
10
0.0
20
0.0
30
0.0
70
1
0
VERTEX
8
0
10
65.4304
20
54.97145625
30
0
0
VERTEX
8
0
10
65.4304
20
55.51854375
30
0
0
VERTEX
8
0
10
65.04354375
20
55.9054
30
0
0
VERTEX
8
0
10
64.49645625000001
20
55.9054
30
0
0
VERTEX
8
0
10
64.1096
20
55.51854375
30
0
0
VERTEX
8
0
10
64.1096
20
54.97145625
30
0
0
VERTEX
8
0
10
64.49645625000001
20
54.5846
30
0
0
VERTEX
8
0
10
65.04354375
20
54.5846
30
0
0
SEQEND
0
POLYLINE
66
1
8
16_copper
10
0.0
20
0.0
30
0.0
70
1
0
VERTEX
8
0
10
69.24040000000001
20
49.891456250000005
30
0
0
VERTEX
8
0
10
69.24040000000001
20
50.43854375
30
0
0
VERTEX
8
0
10
68.85354375
20
50.8254
30
0
0
VERTEX
8
0
10
68.30645625
20
50.8254
30
0
0
VERTEX
8
0
10
67.9196
20
50.43854375
30
0
0
VERTEX
8
0
10
67.9196
20
49.891456250000005
30
0
0
VERTEX
8
0
10
68.30645625
20
49.5046
30
0
0
VERTEX
8
0
10
68.85354375
20
49.5046
30
0
0
SEQEND
0
POLYLINE
66
1
8
16_copper
10
0.0
20
0.0
30
0.0
70
1
0
VERTEX
8
0
10
90.17
20
47.09895
30
0
0
VERTEX
8
0
10
90.17
20
48.151050000000005
30
0
0
VERTEX
8
0
10
89.42605
20
48.895
30
0
0
VERTEX
8
0
10
88.37395000000001
20
48.895
30
0
0
VERTEX
8
0
10
87.63000000000001
20
48.151050000000005
30
0
0
VERTEX
8
0
10
87.63000000000001
20
47.09895
30
0
0
VERTEX
8
0
10
88.37395000000001
20
46.355000000000004
30
0
0
VERTEX
8
0
10
89.42605
20
46.355000000000004
30
0
0
SEQEND
0
POLYLINE
66
1
8
16_copper
10
0.0
20
0.0
30
0.0
70
1
0
VERTEX
8
0
10
131.4704
20
42.27145625
30
0
0
VERTEX
8
0
10
131.4704
20
42.81854375
30
0
0
VERTEX
8
0
10
131.08354375000002
20
43.205400000000004
30
0
0
VERTEX
8
0
10
130.53645625000001
20
43.205400000000004
30
0
0
VERTEX
8
0
10
130.1496
20
42.81854375
30
0
0
VERTEX
8
0
10
130.1496
20
42.27145625
30
0
0
VERTEX
8
0
10
130.53645625000001
20
41.8846
30
0
0
VERTEX
8
0
10
131.08354375000002
20
41.8846
30
0
0
SEQEND
0
POLYLINE
66
1
8
16_copper
10
0.0
20
0.0
30
0.0
70
1
0
VERTEX
8
0
10
123.85040000000001
20
42.27145625
30
0
0
VERTEX
8
0
10
123.85040000000001
20
42.81854375
30
0
0
VERTEX
8
0
10
123.46354375
20
43.205400000000004
30
0
0
VERTEX
8
0
10
122.91645625000001
20
43.205400000000004
30
0
0
VERTEX
8
0
10
122.5296
20
42.81854375
30
0
0
VERTEX
8
0
10
122.5296
20
42.27145625
30
0
0
VERTEX
8
0
10
122.91645625000001
20
41.8846
30
0
0
VERTEX
8
0
10
123.46354375
20
41.8846
30
0
0
SEQEND
0
POLYLINE
66
1
8
16_copper
10
0.0
20
0.0
30
0.0
70
1
0
VERTEX
8
0
10
37.4904
20
30.84145625
30
0
0
VERTEX
8
0
10
37.4904
20
31.38854375
30
0
0
VERTEX
8
0
10
37.10354375
20
31.7754
30
0
0
VERTEX
8
0
10
36.556456250000004
20
31.7754
30
0
0
VERTEX
8
0
10
36.1696
20
31.38854375
30
0
0
VERTEX
8
0
10
36.1696
20
30.84145625
30
0
0
VERTEX
8
0
10
36.556456250000004
20
30.454600000000003
30
0
0
VERTEX
8
0
10
37.10354375
20
30.454600000000003
30
0
0
SEQEND
0
POLYLINE
66
1
8
16_copper
10
0.0
20
0.0
30
0.0
70
1
0
VERTEX
8
0
10
133.3754
20
30.84145625
30
0
0
VERTEX
8
0
10
133.3754
20
31.38854375
30
0
0
VERTEX
8
0
10
132.98854375000002
20
31.7754
30
0
0
VERTEX
8
0
10
132.44145625000002
20
31.7754
30
0
0
VERTEX
8
0
10
132.0546
20
31.38854375
30
0
0
VERTEX
8
0
10
132.0546
20
30.84145625
30
0
0
VERTEX
8
0
10
132.44145625000002
20
30.454600000000003
30
0
0
VERTEX
8
0
10
132.98854375000002
20
30.454600000000003
30
0
0
SEQEND
0
POLYLINE
66
1
8
16_copper
10
0.0
20
0.0
30
0.0
70
1
0
VERTEX
8
0
10
46.355000000000004
20
11.53895
30
0
0
VERTEX
8
0
10
46.355000000000004
20
12.591050000000001
30
0
0
VERTEX
8
0
10
45.61105
20
13.335
30
0
0
VERTEX
8
0
10
44.55895
20
13.335
30
0
0
VERTEX
8
0
10
43.815000000000005
20
12.591050000000001
30
0
0
VERTEX
8
0
10
43.815000000000005
20
11.53895
30
0
0
VERTEX
8
0
10
44.55895
20
10.795
30
0
0
VERTEX
8
0
10
45.61105
20
10.795
30
0
0
SEQEND
0
POLYLINE
66
1
8
16_copper
10
0.0
20
0.0
30
0.0
70
1
0
VERTEX
8
0
10
128.905
20
10.90395
30
0
0
VERTEX
8
0
10
128.905
20
11.956050000000001
30
0
0
VERTEX
8
0
10
128.16105000000002
20
12.700000000000001
30
0
0
VERTEX
8
0
10
127.10895000000001
20
12.700000000000001
30
0
0
VERTEX
8
0
10
126.36500000000001
20
11.956050000000001
30
0
0
VERTEX
8
0
10
126.36500000000001
20
10.90395
30
0
0
VERTEX
8
0
10
127.10895000000001
20
10.16
30
0
0
VERTEX
8
0
10
128.16105000000002
20
10.16
30
0
0
SEQEND
0
POLYLINE
66
1
8
16_copper
10
0.0
20
0.0
30
0.0
70
1
0
VERTEX
8
0
10
44.4754
20
6.076456250000001
30
0
0
VERTEX
8
0
10
44.4754
20
6.6235437500000005
30
0
0
VERTEX
8
0
10
44.08854375
20
7.010400000000001
30
0
0
VERTEX
8
0
10
43.54145625
20
7.010400000000001
30
0
0
VERTEX
8
0
10
43.1546
20
6.6235437500000005
30
0
0
VERTEX
8
0
10
43.1546
20
6.076456250000001
30
0
0
VERTEX
8
0
10
43.54145625
20
5.6896
30
0
0
VERTEX
8
0
10
44.08854375
20
5.6896
30
0
0
SEQEND
0
POLYLINE
66
1
8
16_copper
10
0.0
20
0.0
30
0.0
70
1
0
VERTEX
8
0
10
127.0254
20
6.076456250000001
30
0
0
VERTEX
8
0
10
127.0254
20
6.6235437500000005
30
0
0
VERTEX
8
0
10
126.63854375000001
20
7.010400000000001
30
0
0
VERTEX
8
0
10
126.09145625000001
20
7.010400000000001
30
0
0
VERTEX
8
0
10
125.7046
20
6.6235437500000005
30
0
0
VERTEX
8
0
10
125.7046
20
6.076456250000001
30
0
0
VERTEX
8
0
10
126.09145625000001
20
5.6896
30
0
0
VERTEX
8
0
10
126.63854375000001
20
5.6896
30
0
0
SEQEND
0
POLYLINE
66
1
8
1_copper
10
0.0
20
0.0
30
0.0
70
1
0
VERTEX
8
0
10
45.116265625000004
20
25.401018750000002
30
0
0
VERTEX
8
0
10
45.162
20
25.401556250000002
30
0
42
0.1759131180721123
0
VERTEX
8
0
10
46.36523125
20
25.894315625
30
0
0
VERTEX
8
0
10
46.42903125
20
25.955096875000002
30
0
0
VERTEX
8
0
10
46.431609375
20
25.957531250000002
30
0
0
VERTEX
8
0
10
46.43183125
20
25.957765625
30
0
0
VERTEX
8
0
10
46.4320375
20
25.9579625
30
0
0
VERTEX
8
0
10
57.304075000000005
20
36.83
30
0
0
VERTEX
8
0
10
76.2
20
36.83
30
0
0
VERTEX
8
0
10
76.309059375
20
36.833125
30
0
42
0.9484888569736094
0
VERTEX
8
0
10
76.29224375
20
40.637765625
30
0
0
VERTEX
8
0
10
76.2
20
40.64
30
0
0
VERTEX
8
0
10
56.515
20
40.64
30
0
0
VERTEX
8
0
10
56.46791875
20
40.638650000000005
30
0
0
VERTEX
8
0
10
56.420571875
20
40.637659375000005
30
0
42
0.1735537376187737
0
VERTEX
8
0
10
55.23476875
20
40.145684375
30
0
0
VERTEX
8
0
10
55.228959375
20
40.14015
30
0
0
VERTEX
8
0
10
55.22395625
20
40.135796875000004
30
0
0
VERTEX
8
0
10
55.206275000000005
20
40.1185375
30
0
0
VERTEX
8
0
10
55.1679625
20
40.0820375
30
0
0
VERTEX
8
0
10
45.213012500000005
20
30.127087500000002
30
0
0
VERTEX
8
0
10
43.3734625
20
32.33455
30
0
0
VERTEX
8
0
10
43.301243750000005
20
32.416334375
30
0
42
0.9484881841449482
0
VERTEX
8
0
10
40.3892
20
29.96774375
30
0
0
VERTEX
8
0
10
40.446537500000005
20
29.89545
30
0
0
VERTEX
8
0
10
43.6215375
20
26.08545
30
0
0
VERTEX
8
0
10
43.6273125
20
26.078909375000002
30
0
0
VERTEX
8
0
10
43.632768750000004
20
26.072096875
30
0
42
0.21816810094646144
0
VERTEX
8
0
10
45.070350000000005
20
25.400056250000002
30
0
0
SEQEND
0
POLYLINE
66
1
8
16_copper
10
0.0
20
0.0
30
0.0
70
1
0
VERTEX
8
0
10
77.2033
20
38.319421875
30
0
0
VERTEX
8
0
10
77.2033
20
39.150578125
30
0
0
VERTEX
8
0
10
76.615578125
20
39.7383
30
0
0
VERTEX
8
0
10
75.784421875
20
39.7383
30
0
0
VERTEX
8
0
10
75.1967
20
39.150578125
30
0
0
VERTEX
8
0
10
75.1967
20
38.319421875
30
0
0
VERTEX
8
0
10
75.784421875
20
37.731700000000004
30
0
0
VERTEX
8
0
10
76.615578125
20
37.731700000000004
30
0
0
SEQEND
0
POLYLINE
66
1
8
16_copper
10
0.0
20
0.0
30
0.0
70
1
0
VERTEX
8
0
10
42.5704
20
30.84145625
30
0
0
VERTEX
8
0
10
42.5704
20
31.38854375
30
0
0
VERTEX
8
0
10
42.183543750000005
20
31.7754
30
0
0
VERTEX
8
0
10
41.63645625
20
31.7754
30
0
0
VERTEX
8
0
10
41.2496
20
31.38854375
30
0
0
VERTEX
8
0
10
41.2496
20
30.84145625
30
0
0
VERTEX
8
0
10
41.63645625
20
30.454600000000003
30
0
0
VERTEX
8
0
10
42.183543750000005
20
30.454600000000003
30
0
0
SEQEND
0
POLYLINE
66
1
8
16_copper
10
0.0
20
0.0
30
0.0
70
1
0
VERTEX
8
0
10
46.355000000000004
20
26.778950000000002
30
0
0
VERTEX
8
0
10
46.355000000000004
20
27.83105
30
0
0
VERTEX
8
0
10
45.61105
20
28.575000000000003
30
0
0
VERTEX
8
0
10
44.55895
20
28.575000000000003
30
0
0
VERTEX
8
0
10
43.815000000000005
20
27.83105
30
0
0
VERTEX
8
0
10
43.815000000000005
20
26.778950000000002
30
0
0
VERTEX
8
0
10
44.55895
20
26.035
30
0
0
VERTEX
8
0
10
45.61105
20
26.035
30
0
0
SEQEND
0
POLYLINE
66
1
8
1_copper
10
0.0
20
0.0
30
0.0
70
1
0
VERTEX
8
0
10
127.69796875
20
24.766040625000002
30
0
42
0.39053890710621053
0
VERTEX
8
0
10
129.53776562500002
20
26.57775625
30
0
0
VERTEX
8
0
10
129.54
20
26.67
30
0
0
VERTEX
8
0
10
129.54
20
31.115000000000002
30
0
0
VERTEX
8
0
10
129.53865625
20
31.161856250000003
30
0
0
VERTEX
8
0
10
129.537684375
20
31.208896875
30
0
42
0.3101287928664307
0
VERTEX
8
0
10
128.23170625
20
32.924134375
30
0
0
VERTEX
8
0
10
128.223696875
20
32.9265625
30
0
0
VERTEX
8
0
10
128.21726875000002
20
32.92883125
30
0
0
VERTEX
8
0
10
128.19350625
20
32.935715625
30
0
0
VERTEX
8
0
10
128.14340312500002
20
32.95090625
30
0
0
VERTEX
8
0
10
86.868403125
20
44.38090625
30
0
0
VERTEX
8
0
10
86.762465625
20
44.407000000000004
30
0
42
0.9484885748892408
0
VERTEX
8
0
10
85.76329375
20
40.735865625
30
0
0
VERTEX
8
0
10
85.851596875
20
40.70909375
30
0
0
VERTEX
8
0
10
125.73
20
29.66584375
30
0
0
VERTEX
8
0
10
125.73
20
26.67
30
0
0
VERTEX
8
0
10
125.733125
20
26.560940625
30
0
42
0.3905387458388423
0
VERTEX
8
0
10
127.5888625
20
24.765559375000002
30
0
0
SEQEND
0
POLYLINE
66
1
8
16_copper
10
0.0
20
0.0
30
0.0
70
1
0
VERTEX
8
0
10
87.36330000000001
20
42.129421875000006
30
0
0
VERTEX
8
0
10
87.36330000000001
20
42.960578125000005
30
0
0
VERTEX
8
0
10
86.77557812500001
20
43.548300000000005
30
0
0
VERTEX
8
0
10
85.944421875
20
43.548300000000005
30
0
0
VERTEX
8
0
10
85.3567
20
42.960578125000005
30
0
0
VERTEX
8
0
10
85.3567
20
42.129421875000006
30
0
0
VERTEX
8
0
10
85.944421875
20
41.5417
30
0
0
VERTEX
8
0
10
86.77557812500001
20
41.5417
30
0
0
SEQEND
0
POLYLINE
66
1
8
16_copper
10
0.0
20
0.0
30
0.0
70
1
0
VERTEX
8
0
10
128.2954
20
30.84145625
30
0
0
VERTEX
8
0
10
128.2954
20
31.38854375
30
0
0
VERTEX
8
0
10
127.90854375
20
31.7754
30
0
0
VERTEX
8
0
10
127.36145625
20
31.7754
30
0
0
VERTEX
8
0
10
126.97460000000001
20
31.38854375
30
0
0
VERTEX
8
0
10
126.97460000000001
20
30.84145625
30
0
0
VERTEX
8
0
10
127.36145625
20
30.454600000000003
30
0
0
VERTEX
8
0
10
127.90854375
20
30.454600000000003
30
0
0
SEQEND
0
POLYLINE
66
1
8
16_copper
10
0.0
20
0.0
30
0.0
70
1
0
VERTEX
8
0
10
128.905
20
26.14395
30
0
0
VERTEX
8
0
10
128.905
20
27.19605
30
0
0
VERTEX
8
0
10
128.16105000000002
20
27.94
30
0
0
VERTEX
8
0
10
127.10895000000001
20
27.94
30
0
0
VERTEX
8
0
10
126.36500000000001
20
27.19605
30
0
0
VERTEX
8
0
10
126.36500000000001
20
26.14395
30
0
0
VERTEX
8
0
10
127.10895000000001
20
25.400000000000002
30
0
0
VERTEX
8
0
10
128.16105000000002
20
25.400000000000002
30
0
0
SEQEND
0
POLYLINE
66
1
8
1_copper
10
0.0
20
0.0
30
0.0
70
1
0
VERTEX
8
0
10
40.06796875
20
12.701040625000001
30
0
42
0.39053890710621053
0
VERTEX
8
0
10
41.907765625
20
14.51275625
30
0
0
VERTEX
8
0
10
41.910000000000004
20
14.605
30
0
0
VERTEX
8
0
10
41.910000000000004
20
16.990925
30
0
0
VERTEX
8
0
10
42.699075
20
17.78
30
0
0
VERTEX
8
0
10
66.04
20
17.78
30
0
0
VERTEX
8
0
10
66.14905937500001
20
17.783125000000002
30
0
42
0.9484888569736094
0
VERTEX
8
0
10
66.13224375
20
21.587765625
30
0
0
VERTEX
8
0
10
66.04
20
21.59
30
0
0
VERTEX
8
0
10
41.910000000000004
20
21.59
30
0
0
VERTEX
8
0
10
41.86291875
20
21.58865
30
0
0
VERTEX
8
0
10
41.815571875
20
21.587659375
30
0
42
0.1735537376187737
0
VERTEX
8
0
10
40.629768750000004
20
21.095684375
30
0
0
VERTEX
8
0
10
40.623959375000005
20
21.09015
30
0
0
VERTEX
8
0
10
40.618956250000004
20
21.085796875
30
0
0
VERTEX
8
0
10
40.601275
20
21.0685375
30
0
0
VERTEX
8
0
10
40.562962500000005
20
21.0320375
30
0
0
VERTEX
8
0
10
38.657962500000004
20
19.1270375
30
0
0
VERTEX
8
0
10
38.625475
20
19.092634375
30
0
0
VERTEX
8
0
10
38.592846875
20
19.058609375
30
0
42
0.1735535852510264
0
VERTEX
8
0
10
38.102234375
20
17.87224375
30
0
0
VERTEX
8
0
10
38.102040625
20
17.864203125
30
0
0
VERTEX
8
0
10
38.10158125
20
17.857609375
30
0
0
VERTEX
8
0
10
38.10128125
20
17.832940625
30
0
0
VERTEX
8
0
10
38.1
20
17.78
30
0
0
VERTEX
8
0
10
38.1
20
14.605
30
0
0
VERTEX
8
0
10
38.103125
20
14.495940625000001
30
0
42
0.3905387458388423
0
VERTEX
8
0
10
39.9588625
20
12.700559375000001
30
0
0
SEQEND
0
POLYLINE
66
1
8
16_copper
10
0.0
20
0.0
30
0.0
70
1
0
VERTEX
8
0
10
41.0083
20
14.189421875
30
0
0
VERTEX
8
0
10
41.0083
20
15.020578125
30
0
0
VERTEX
8
0
10
40.420578125
20
15.608300000000002
30
0
0
VERTEX
8
0
10
39.589421875
20
15.608300000000002
30
0
0
VERTEX
8
0
10
39.0017
20
15.020578125
30
0
0
VERTEX
8
0
10
39.0017
20
14.189421875
30
0
0
VERTEX
8
0
10
39.589421875
20
13.601700000000001
30
0
0
VERTEX
8
0
10
40.420578125
20
13.601700000000001
30
0
0
SEQEND
0
POLYLINE
66
1
8
1_copper
10
0.0
20
0.0
30
0.0
70
1
0
VERTEX
8
0
10
28.59788125
20
17.78065625
30
0
0
VERTEX
8
0
10
28.620784375000003
20
17.78055
30
0
42
0.12959962725851504
0
VERTEX
8
0
10
29.553712500000003
20
18.050634375
30
0
0
VERTEX
8
0
10
29.586528125
20
18.07138125
30
0
0
VERTEX
8
0
10
29.60749375
20
18.08406875
30
0
0
VERTEX
8
0
10
29.618025000000003
20
18.091296875
30
0
0
VERTEX
8
0
10
29.631703125
20
18.09994375
30
0
0
VERTEX
8
0
10
37.251703125
20
23.17994375
30
0
0
VERTEX
8
0
10
37.3407125
20
23.243040625000003
30
0
42
0.9484885881347782
0
VERTEX
8
0
10
35.2162875
20
26.399365625
30
0
0
VERTEX
8
0
10
35.138296875
20
26.35005625
30
0
0
VERTEX
8
0
10
27.9982125
20
21.59
30
0
0
VERTEX
8
0
10
15.875
20
21.59
30
0
0
VERTEX
8
0
10
15.765940625
20
21.586875000000003
30
0
42
0.9484888569736094
0
VERTEX
8
0
10
15.78275625
20
17.782234375
30
0
0
VERTEX
8
0
10
15.875
20
17.78
30
0
0
VERTEX
8
0
10
28.575000000000003
20
17.78
30
0
0
SEQEND
0
POLYLINE
66
1
8
16_copper
10
0.0
20
0.0
30
0.0
70
1
0
VERTEX
8
0
10
37.1983
20
24.349421875
30
0
0
VERTEX
8
0
10
37.1983
20
25.180578125
30
0
0
VERTEX
8
0
10
36.610578125
20
25.7683
30
0
0
VERTEX
8
0
10
35.779421875000004
20
25.7683
30
0
0
VERTEX
8
0
10
35.191700000000004
20
25.180578125
30
0
0
VERTEX
8
0
10
35.191700000000004
20
24.349421875
30
0
0
VERTEX
8
0
10
35.779421875000004
20
23.7617
30
0
0
VERTEX
8
0
10
36.610578125
20
23.7617
30
0
0
SEQEND
0
POLYLINE
66
1
8
1_copper
10
0.0
20
0.0
30
0.0
70
1
0
VERTEX
8
0
10
111.7626125
20
17.780075
30
0
0
VERTEX
8
0
10
111.7652625
20
17.78000625
30
0
42
0.12959982015858054
0
VERTEX
8
0
10
112.703725
20
18.0301875
30
0
0
VERTEX
8
0
10
112.782746875
20
18.077825
30
0
0
VERTEX
8
0
10
119.767746875
20
22.522825
30
0
0
VERTEX
8
0
10
119.85808125000001
20
22.5840125
30
0
42
0.9484884365217285
0
VERTEX
8
0
10
117.801275
20
25.7848125
30
0
0
VERTEX
8
0
10
117.72225312500001
20
25.737175
30
0
0
VERTEX
8
0
10
111.2052625
20
21.59
30
0
0
VERTEX
8
0
10
97.155
20
21.59
30
0
0
VERTEX
8
0
10
97.045940625
20
21.586875000000003
30
0
42
0.9484888569736094
0
VERTEX
8
0
10
97.06275625
20
17.782234375
30
0
0
VERTEX
8
0
10
97.155
20
17.78
30
0
0
VERTEX
8
0
10
111.76
20
17.78
30
0
0
SEQEND
0
POLYLINE
66
1
8
16_copper
10
0.0
20
0.0
30
0.0
70
1
0
VERTEX
8
0
10
119.7483
20
23.714421875000003
30
0
0
VERTEX
8
0
10
119.7483
20
24.545578125000002
30
0
0
VERTEX
8
0
10
119.160578125
20
25.133300000000002
30
0
0
VERTEX
8
0
10
118.32942187500001
20
25.133300000000002
30
0
0
VERTEX
8
0
10
117.74170000000001
20
24.545578125000002
30
0
0
VERTEX
8
0
10
117.74170000000001
20
23.714421875000003
30
0
0
VERTEX
8
0
10
118.32942187500001
20
23.1267
30
0
0
VERTEX
8
0
10
119.160578125
20
23.1267
30
0
0
SEQEND
0
POLYLINE
66
1
8
1_copper
10
0.0
20
0.0
30
0.0
70
1
0
VERTEX
8
0
10
122.649428125
20
12.067340625
30
0
42
0.1735537376187737
0
VERTEX
8
0
10
123.83523125
20
12.559315625
30
0
0
VERTEX
8
0
10
123.9020375
20
12.6229625
30
0
0
VERTEX
8
0
10
129.059075
20
17.78
30
0
0
VERTEX
8
0
10
147.32
20
17.78
30
0
0
VERTEX
8
0
10
147.429059375
20
17.783125000000002
30
0
42
0.9484888569736094
0
VERTEX
8
0
10
147.41224375000002
20
21.587765625
30
0
0
VERTEX
8
0
10
147.32
20
21.59
30
0
0
VERTEX
8
0
10
128.27
20
21.59
30
0
0
VERTEX
8
0
10
128.22291875000002
20
21.58865
30
0
0
VERTEX
8
0
10
128.175571875
20
21.587659375
30
0
42
0.1735537376187737
0
VERTEX
8
0
10
126.98976875000001
20
21.095684375
30
0
0
VERTEX
8
0
10
126.98395937500001
20
21.09015
30
0
0
VERTEX
8
0
10
126.97895625000001
20
21.085796875
30
0
0
VERTEX
8
0
10
126.961275
20
21.0685375
30
0
0
VERTEX
8
0
10
126.92296250000001
20
21.0320375
30
0
0
VERTEX
8
0
10
121.20796250000001
20
15.317037500000001
30
0
0
VERTEX
8
0
10
121.133053125
20
15.2377125
30
0
42
0.644934300231879
0
VERTEX
8
0
10
122.54035
20
12.065056250000001
30
0
0
SEQEND
0
POLYLINE
66
1
8
16_copper
10
0.0
20
0.0
30
0.0
70
1
0
VERTEX
8
0
10
123.5583
20
13.554421875000001
30
0
0
VERTEX
8
0
10
123.5583
20
14.385578125
30
0
0
VERTEX
8
0
10
122.970578125
20
14.9733
30
0
0
VERTEX
8
0
10
122.13942187500001
20
14.9733
30
0
0
VERTEX
8
0
10
121.55170000000001
20
14.385578125
30
0
0
VERTEX
8
0
10
121.55170000000001
20
13.554421875000001
30
0
0
VERTEX
8
0
10
122.13942187500001
20
12.966700000000001
30
0
0
VERTEX
8
0
10
122.970578125
20
12.966700000000001
30
0
0
SEQEND
0
POLYLINE
66
1
8
1_copper
10
0.0
20
0.0
30
0.0
70
1
0
VERTEX
8
0
10
74.93
20
47.09895
30
0
0
VERTEX
8
0
10
74.93
20
48.151050000000005
30
0
0
VERTEX
8
0
10
74.7522
20
48.32885
30
0
0
VERTEX
8
0
10
74.7522
20
55.88
30
0
0
VERTEX
8
0
10
74.749075
20
55.962546875
30
0
42
0.9438309218738523
0
VERTEX
8
0
10
72.56866875
20
55.92356875
30
0
0
VERTEX
8
0
10
72.5678
20
55.88
30
0
0
VERTEX
8
0
10
72.5678
20
48.32885
30
0
0
VERTEX
8
0
10
72.39
20
48.151050000000005
30
0
0
VERTEX
8
0
10
72.39
20
47.09895
30
0
0
VERTEX
8
0
10
73.13395
20
46.355000000000004
30
0
0
VERTEX
8
0
10
74.18605000000001
20
46.355000000000004
30
0
0
SEQEND
0
POLYLINE
66
1
8
16_copper
10
0.0
20
0.0
30
0.0
70
1
0
VERTEX
8
0
10
74.3204
20
55.60645625
30
0
0
VERTEX
8
0
10
74.3204
20
56.153543750000004
30
0
0
VERTEX
8
0
10
73.93354375
20
56.540400000000005
30
0
0
VERTEX
8
0
10
73.38645625000001
20
56.540400000000005
30
0
0
VERTEX
8
0
10
72.9996
20
56.153543750000004
30
0
0
VERTEX
8
0
10
72.9996
20
55.60645625
30
0
0
VERTEX
8
0
10
73.38645625000001
20
55.2196
30
0
0
VERTEX
8
0
10
73.93354375
20
55.2196
30
0
0
SEQEND
0
POLYLINE
66
1
8
16_copper
10
0.0
20
0.0
30
0.0
70
1
0
VERTEX
8
0
10
74.93
20
47.09895
30
0
0
VERTEX
8
0
10
74.93
20
48.151050000000005
30
0
0
VERTEX
8
0
10
74.18605000000001
20
48.895
30
0
0
VERTEX
8
0
10
73.13395
20
48.895
30
0
0
VERTEX
8
0
10
72.39
20
48.151050000000005
30
0
0
VERTEX
8
0
10
72.39
20
47.09895
30
0
0
VERTEX
8
0
10
73.13395
20
46.355000000000004
30
0
0
VERTEX
8
0
10
74.18605000000001
20
46.355000000000004
30
0
0
SEQEND
0
POLYLINE
66
1
8
1_copper
10
0.0
20
0.0
30
0.0
70
1
0
VERTEX
8
0
10
34.372546875000005
20
61.140925
30
0
42
0.2110946099034289
0
VERTEX
8
0
10
35.150828125000004
20
61.557781250000005
30
0
0
VERTEX
8
0
10
35.192446875
20
61.615446875
30
0
0
VERTEX
8
0
10
35.233096875
20
61.632284375000005
30
0
0
VERTEX
8
0
10
35.290321875000004
20
61.662871875
30
0
42
0.5664944091753782
0
VERTEX
8
0
10
35.290321875000004
20
62.797128125
30
0
0
VERTEX
8
0
10
35.233096875
20
62.827715625
30
0
0
VERTEX
8
0
10
35.1919125
20
62.844775000000006
30
0
0
VERTEX
8
0
10
35.17695625
20
62.86734375
30
0
42
0.2309315020170835
0
VERTEX
8
0
10
34.333568750000005
20
63.32133125
30
0
0
VERTEX
8
0
10
34.29
20
63.3222
30
0
0
VERTEX
8
0
10
27.305
20
63.3222
30
0
0
VERTEX
8
0
10
27.222453125
20
63.319075000000005
30
0
0
VERTEX
8
0
10
27.140378125
20
63.309721875
30
0
0
VERTEX
8
0
10
27.13921875
20
63.3095
30
0
0
VERTEX
8
0
10
26.857859375
20
63.3095
30
0
0
VERTEX
8
0
10
26.6555125
20
63.107153125
30
0
0
VERTEX
8
0
10
26.617503125000002
20
63.078675000000004
30
0
42
0.05679931056443962
0
VERTEX
8
0
10
26.444171875000002
20
62.90221875
30
0
0
VERTEX
8
0
10
26.427556250000002
20
62.879196875000005
30
0
0
VERTEX
8
0
10
26.2255
20
62.677140625
30
0
0
VERTEX
8
0
10
26.2255
20
62.39260625
30
0
0
VERTEX
8
0
10
26.222506250000002
20
62.375296875000004
30
0
42
0.05679906389928615
0
VERTEX
8
0
10
26.217571875
20
62.128
30
0
0
VERTEX
8
0
10
26.2255
20
62.068003125000004
30
0
0
VERTEX
8
0
10
26.2255
20
61.782859375
30
0
0
VERTEX
8
0
10
26.426225000000002
20
61.582134375
30
0
0
VERTEX
8
0
10
26.46875
20
61.52744375
30
0
42
0.05679919122100044
0
VERTEX
8
0
10
26.648275
20
61.357293750000004
30
0
0
VERTEX
8
0
10
26.657421875
20
61.3509375
30
0
0
VERTEX
8
0
10
26.857859375
20
61.1505
30
0
0
VERTEX
8
0
10
27.1440375
20
61.1505
30
0
0
VERTEX
8
0
10
27.179075
20
61.145084375
30
0
0
VERTEX
8
0
10
27.26143125
20
61.13866875
30
0
0
VERTEX
8
0
10
27.305
20
61.137800000000006
30
0
0
VERTEX
8
0
10
34.29
20
61.137800000000006
30
0
0
SEQEND
0
POLYLINE
66
1
8
16_copper
10
0.0
20
0.0
30
0.0
70
1
0
VERTEX
8
0
10
28.384500000000003
20
61.782859375
30
0
0
VERTEX
8
0
10
28.384500000000003
20
62.677140625
30
0
0
VERTEX
8
0
10
27.752140625000003
20
63.3095
30
0
0
VERTEX
8
0
10
26.857859375
20
63.3095
30
0
0
VERTEX
8
0
10
26.2255
20
62.677140625
30
0
0
VERTEX
8
0
10
26.2255
20
61.782859375
30
0
0
VERTEX
8
0
10
26.857859375
20
61.1505
30
0
0
VERTEX
8
0
10
27.752140625000003
20
61.1505
30
0
0
SEQEND
0
POLYLINE
66
1
8
16_copper
10
0.0
20
0.0
30
0.0
70
1
0
VERTEX
8
0
10
35.04741875
20
61.575959375000004
30
0
42
0.9063462356499619
0
VERTEX
8
0
10
34.98284375
20
62.8904
30
0
0
VERTEX
8
0
10
33.597156250000005
20
62.8904
30
0
0
VERTEX
8
0
10
33.53258125
20
62.884040625000004
30
0
42
0.9063462356499619
0
VERTEX
8
0
10
33.597156250000005
20
61.5696
30
0
0
VERTEX
8
0
10
34.98284375
20
61.5696
30
0
0
SEQEND
0
POLYLINE
66
1
8
1_copper
10
0.0
20
0.0
30
0.0
70
1
0
VERTEX
8
0
10
71.20254687500001
20
59.235925
30
0
42
0.9438309218738523
0
VERTEX
8
0
10
71.16356875000001
20
61.416331250000006
30
0
0
VERTEX
8
0
10
71.12
20
61.4172
30
0
0
VERTEX
8
0
10
55.88
20
61.4172
30
0
0
VERTEX
8
0
10
55.866565625
20
61.416690625
30
0
0
VERTEX
8
0
10
55.853131250000004
20
61.416868750000006
30
0
42
0.056799514807954615
0
VERTEX
8
0
10
55.608137500000005
20
61.382825000000004
30
0
0
VERTEX
8
0
10
55.566159375000005
20
61.3711375
30
0
0
VERTEX
8
0
10
49.216159375000004
20
59.4661375
30
0
0
VERTEX
8
0
10
49.137990625
20
59.439425
30
0
42
0.15246751535217004
0
VERTEX
8
0
10
48.62763125
20
59.035331250000006
30
0
0
VERTEX
8
0
10
48.627
20
59.034325
30
0
0
VERTEX
8
0
10
48.586903125
20
59.017715625
30
0
0
VERTEX
8
0
10
48.529678125000004
20
58.987128125000005
30
0
42
0.5664944091753782
0
VERTEX
8
0
10
48.529678125000004
20
57.852871875000005
30
0
0
VERTEX
8
0
10
48.586903125
20
57.822284375
30
0
0
VERTEX
8
0
10
48.627715625
20
57.805378125000004
30
0
0
VERTEX
8
0
10
48.635993750000004
20
57.792581250000005
30
0
42
0.31219193267905476
0
VERTEX
8
0
10
49.801862500000006
20
57.362175
30
0
0
VERTEX
8
0
10
49.843840625000006
20
57.3738625
30
0
0
VERTEX
8
0
10
56.0403
20
59.232800000000005
30
0
0
VERTEX
8
0
10
71.12
20
59.232800000000005
30
0
0
SEQEND
0
POLYLINE
66
1
8
16_copper
10
0.0
20
0.0
30
0.0
70
1
0
VERTEX
8
0
10
65.4304
20
60.05145625
30
0
0
VERTEX
8
0
10
65.4304
20
60.598543750000005
30
0
0
VERTEX
8
0
10
65.04354375
20
60.985400000000006
30
0
0
VERTEX
8
0
10
64.49645625000001
20
60.985400000000006
30
0
0
VERTEX
8
0
10
64.1096
20
60.598543750000005
30
0
0
VERTEX
8
0
10
64.1096
20
60.05145625
30
0
0
VERTEX
8
0
10
64.49645625000001
20
59.6646
30
0
0
VERTEX
8
0
10
65.04354375
20
59.6646
30
0
0
SEQEND
0
POLYLINE
66
1
8
16_copper
10
0.0
20
0.0
30
0.0
70
1
0
VERTEX
8
0
10
71.7804
20
60.05145625
30
0
0
VERTEX
8
0
10
71.7804
20
60.598543750000005
30
0
0
VERTEX
8
0
10
71.39354375
20
60.985400000000006
30
0
0
VERTEX
8
0
10
70.84645625
20
60.985400000000006
30
0
0
VERTEX
8
0
10
70.45960000000001
20
60.598543750000005
30
0
0
VERTEX
8
0
10
70.45960000000001
20
60.05145625
30
0
0
VERTEX
8
0
10
70.84645625
20
59.6646
30
0
0
VERTEX
8
0
10
71.39354375
20
59.6646
30
0
0
SEQEND
0
POLYLINE
66
1
8
16_copper
10
0.0
20
0.0
30
0.0
70
1
0
VERTEX
8
0
10
50.28741875
20
57.765959375
30
0
42
0.9063462356499619
0
VERTEX
8
0
10
50.22284375
20
59.080400000000004
30
0
0
VERTEX
8
0
10
48.83715625
20
59.080400000000004
30
0
0
VERTEX
8
0
10
48.77258125
20
59.074040625
30
0
42
0.9063462356499619
0
VERTEX
8
0
10
48.83715625
20
57.759600000000006
30
0
0
VERTEX
8
0
10
50.22284375
20
57.759600000000006
30
0
0
SEQEND
0
POLYLINE
66
1
8
1_copper
10
0.0
20
0.0
30
0.0
70
1
0
VERTEX
8
0
10
101.8032
20
56.2864
30
0
0
VERTEX
8
0
10
99.65068125
20
56.2864
30
0
0
VERTEX
8
0
10
99.6299
20
56.373753125
30
0
42
0.32589758371752564
0
VERTEX
8
0
10
97.88224375
20
57.782765625
30
0
0
VERTEX
8
0
10
97.79
20
57.785000000000004
30
0
0
VERTEX
8
0
10
79.7052
20
57.785000000000004
30
0
0
VERTEX
8
0
10
79.7052
20
60.325
30
0
0
VERTEX
8
0
10
79.70207500000001
20
60.402590625
30
0
42
0.9605508107434966
0
VERTEX
8
0
10
77.7748
20
60.325
30
0
0
VERTEX
8
0
10
77.7748
20
57.521653125
30
0
0
VERTEX
8
0
10
77.70750625000001
20
57.480931250000005
30
0
42
0.7292474950241828
0
VERTEX
8
0
10
78.64775625
20
53.977234375
30
0
0
VERTEX
8
0
10
78.74000000000001
20
53.975
30
0
0
VERTEX
8
0
10
97.79
20
53.975
30
0
0
VERTEX
8
0
10
97.89905937500001
20
53.978125000000006
30
0
42
0.32589739709617316
0
VERTEX
8
0
10
99.63419375000001
20
55.402528125
30
0
0
VERTEX
8
0
10
99.65043750000001
20
55.473600000000005
30
0
0
VERTEX
8
0
10
101.8032
20
55.473600000000005
30
0
0
SEQEND
0
POLYLINE
66
1
8
16_copper
10
0.0
20
0.0
30
0.0
70
1
0
VERTEX
8
0
10
79.4004
20
60.05145625
30
0
0
VERTEX
8
0
10
79.4004
20
60.598543750000005
30
0
0
VERTEX
8
0
10
79.01354375000001
20
60.985400000000006
30
0
0
VERTEX
8
0
10
78.46645625000001
20
60.985400000000006
30
0
0
VERTEX
8
0
10
78.0796
20
60.598543750000005
30
0
0
VERTEX
8
0
10
78.0796
20
60.05145625
30
0
0
VERTEX
8
0
10
78.46645625000001
20
59.6646
30
0
0
VERTEX
8
0
10
79.01354375000001
20
59.6646
30
0
0
SEQEND
0
POLYLINE
66
1
8
16_copper
10
0.0
20
0.0
30
0.0
70
1
0
VERTEX
8
0
10
79.4004
20
55.60645625
30
0
0
VERTEX
8
0
10
79.4004
20
56.153543750000004
30
0
0
VERTEX
8
0
10
79.01354375000001
20
56.540400000000005
30
0
0
VERTEX
8
0
10
78.46645625000001
20
56.540400000000005
30
0
0
VERTEX
8
0
10
78.0796
20
56.153543750000004
30
0
0
VERTEX
8
0
10
78.0796
20
55.60645625
30
0
0
VERTEX
8
0
10
78.46645625000001
20
55.2196
30
0
0
VERTEX
8
0
10
79.01354375000001
20
55.2196
30
0
0
SEQEND
0
POLYLINE
66
1
8
1_copper
10
0.0
20
0.0
30
0.0
70
1
0
VERTEX
8
0
10
107.74680000000001
20
55.473600000000005
30
0
0
VERTEX
8
0
10
110.59745625000001
20
55.473600000000005
30
0
0
VERTEX
8
0
10
110.85145625
20
55.2196
30
0
0
VERTEX
8
0
10
111.39854375
20
55.2196
30
0
0
VERTEX
8
0
10
111.78540000000001
20
55.60645625
30
0
0
VERTEX
8
0
10
111.78540000000001
20
56.153543750000004
30
0
0
VERTEX
8
0
10
111.39854375
20
56.540400000000005
30
0
0
VERTEX
8
0
10
110.85145625
20
56.540400000000005
30
0
0
VERTEX
8
0
10
110.59745625000001
20
56.2864
30
0
0
VERTEX
8
0
10
107.74680000000001
20
56.2864
30
0
0
SEQEND
0
POLYLINE
66
1
8
16_copper
10
0.0
20
0.0
30
0.0
70
1
0
VERTEX
8
0
10
111.78540000000001
20
55.60645625
30
0
0
VERTEX
8
0
10
111.78540000000001
20
56.153543750000004
30
0
0
VERTEX
8
0
10
111.39854375
20
56.540400000000005
30
0
0
VERTEX
8
0
10
110.85145625
20
56.540400000000005
30
0
0
VERTEX
8
0
10
110.4646
20
56.153543750000004
30
0
0
VERTEX
8
0
10
110.4646
20
55.60645625
30
0
0
VERTEX
8
0
10
110.85145625
20
55.2196
30
0
0
VERTEX
8
0
10
111.39854375
20
55.2196
30
0
0
SEQEND
0
POLYLINE
66
1
8
1_copper
10
0.0
20
0.0
30
0.0
70
1
0
VERTEX
8
0
10
123.25296875000001
20
48.261040625
30
0
42
0.39053890710621053
0
VERTEX
8
0
10
125.09276562500001
20
50.072756250000005
30
0
0
VERTEX
8
0
10
125.09500000000001
20
50.165
30
0
0
VERTEX
8
0
10
125.09500000000001
20
55.88
30
0
0
VERTEX
8
0
10
125.094096875
20
55.911468750000004
30
0
0
VERTEX
8
0
10
125.09395937500001
20
55.942968750000006
30
0
42
0.39053890710621053
0
VERTEX
8
0
10
123.28224375
20
57.782765625
30
0
0
VERTEX
8
0
10
123.2555875
20
57.783412500000004
30
0
42
0.005113585100904099
0
VERTEX
8
0
10
123.21664375
20
57.784353125
30
0
0
VERTEX
8
0
10
123.19000000000001
20
57.785000000000004
30
0
0
VERTEX
8
0
10
116.20500000000001
20
57.785000000000004
30
0
0
VERTEX
8
0
10
116.09594062500001
20
57.781875
30
0
42
0.9484888569736094
0
VERTEX
8
0
10
116.11275625
20
53.977234375
30
0
0
VERTEX
8
0
10
116.20500000000001
20
53.975
30
0
0
VERTEX
8
0
10
121.28500000000001
20
53.975
30
0
0
VERTEX
8
0
10
121.28500000000001
20
50.165
30
0
0
VERTEX
8
0
10
121.28812500000001
20
50.055940625000005
30
0
42
0.3905387458388423
0
VERTEX
8
0
10
123.14386250000001
20
48.260559375
30
0
0
SEQEND
0
POLYLINE
66
1
8
16_copper
10
0.0
20
0.0
30
0.0
70
1
0
VERTEX
8
0
10
116.86540000000001
20
55.60645625
30
0
0
VERTEX
8
0
10
116.86540000000001
20
56.153543750000004
30
0
0
VERTEX
8
0
10
116.47854375
20
56.540400000000005
30
0
0
VERTEX
8
0
10
115.93145625000001
20
56.540400000000005
30
0
0
VERTEX
8
0
10
115.5446
20
56.153543750000004
30
0
0
VERTEX
8
0
10
115.5446
20
55.60645625
30
0
0
VERTEX
8
0
10
115.93145625000001
20
55.2196
30
0
0
VERTEX
8
0
10
116.47854375
20
55.2196
30
0
0
SEQEND
0
POLYLINE
66
1
8
16_copper
10
0.0
20
0.0
30
0.0
70
1
0
VERTEX
8
0
10
123.85040000000001
20
55.60645625
30
0
0
VERTEX
8
0
10
123.85040000000001
20
56.153543750000004
30
0
0
VERTEX
8
0
10
123.46354375
20
56.540400000000005
30
0
0
VERTEX
8
0
10
122.91645625000001
20
56.540400000000005
30
0
0
VERTEX
8
0
10
122.5296
20
56.153543750000004
30
0
0
VERTEX
8
0
10
122.5296
20
55.60645625
30
0
0
VERTEX
8
0
10
122.91645625000001
20
55.2196
30
0
0
VERTEX
8
0
10
123.46354375
20
55.2196
30
0
0
SEQEND
0
POLYLINE
66
1
8
16_copper
10
0.0
20
0.0
30
0.0
70
1
0
VERTEX
8
0
10
123.85040000000001
20
49.891456250000005
30
0
0
VERTEX
8
0
10
123.85040000000001
20
50.43854375
30
0
0
VERTEX
8
0
10
123.46354375
20
50.8254
30
0
0
VERTEX
8
0
10
122.91645625000001
20
50.8254
30
0
0
VERTEX
8
0
10
122.5296
20
50.43854375
30
0
0
VERTEX
8
0
10
122.5296
20
49.891456250000005
30
0
0
VERTEX
8
0
10
122.91645625000001
20
49.5046
30
0
0
VERTEX
8
0
10
123.46354375
20
49.5046
30
0
0
SEQEND
0
POLYLINE
66
1
8
1_copper
10
0.0
20
0.0
30
0.0
70
1
0
VERTEX
8
0
10
147.429059375
20
48.263125
30
0
42
0.9484888569736094
0
VERTEX
8
0
10
147.41224375000002
20
52.067765625
30
0
0
VERTEX
8
0
10
147.32
20
52.07
30
0
0
VERTEX
8
0
10
132.715
20
52.07
30
0
0
VERTEX
8
0
10
132.715
20
55.88
30
0
0
VERTEX
8
0
10
132.71187500000002
20
55.989059375000004
30
0
42
0.9484888569736094
0
VERTEX
8
0
10
128.907234375
20
55.972243750000004
30
0
0
VERTEX
8
0
10
128.905
20
55.88
30
0
0
VERTEX
8
0
10
128.905
20
50.165
30
0
0
VERTEX
8
0
10
128.905903125
20
50.133531250000004
30
0
0
VERTEX
8
0
10
128.906040625
20
50.10203125
30
0
42
0.39053890710621053
0
VERTEX
8
0
10
130.71775625
20
48.262234375000006
30
0
0
VERTEX
8
0
10
130.7444125
20
48.261587500000005
30
0
42
0.005113585100904099
0
VERTEX
8
0
10
130.78335625
20
48.260646875
30
0
0
VERTEX
8
0
10
130.81
20
48.260000000000005
30
0
0
VERTEX
8
0
10
147.32
20
48.260000000000005
30
0
0
SEQEND
0
POLYLINE
66
1
8
16_copper
10
0.0
20
0.0
30
0.0
70
1
0
VERTEX
8
0
10
131.4704
20
55.60645625
30
0
0
VERTEX
8
0
10
131.4704
20
56.153543750000004
30
0
0
VERTEX
8
0
10
131.08354375000002
20
56.540400000000005
30
0
0
VERTEX
8
0
10
130.53645625000001
20
56.540400000000005
30
0
0
VERTEX
8
0
10
130.1496
20
56.153543750000004
30
0
0
VERTEX
8
0
10
130.1496
20
55.60645625
30
0
0
VERTEX
8
0
10
130.53645625000001
20
55.2196
30
0
0
VERTEX
8
0
10
131.08354375000002
20
55.2196
30
0
0
SEQEND
0
POLYLINE
66
1
8
16_copper
10
0.0
20
0.0
30
0.0
70
1
0
VERTEX
8
0
10
131.4704
20
49.891456250000005
30
0
0
VERTEX
8
0
10
131.4704
20
50.43854375
30
0
0
VERTEX
8
0
10
131.08354375000002
20
50.8254
30
0
0
VERTEX
8
0
10
130.53645625000001
20
50.8254
30
0
0
VERTEX
8
0
10
130.1496
20
50.43854375
30
0
0
VERTEX
8
0
10
130.1496
20
49.891456250000005
30
0
0
VERTEX
8
0
10
130.53645625000001
20
49.5046
30
0
0
VERTEX
8
0
10
131.08354375000002
20
49.5046
30
0
0
SEQEND
0
POLYLINE
66
1
8
1_copper
10
0.0
20
0.0
30
0.0
70
1
0
VERTEX
8
0
10
105.28300625
20
59.43599375
30
0
0
VERTEX
8
0
10
105.28300625
20
59.435996875
30
0
0
VERTEX
8
0
10
105.18140000000001
20
59.435990625
30
0
0
VERTEX
8
0
10
105.28300312500001
20
59.435990625
30
0
0
SEQEND
0
POLYLINE
66
1
8
1_copper
10
0.0
20
0.0
30
0.0
70
1
0
VERTEX
8
0
10
104.36859687500001
20
52.324006250000004
30
0
0
VERTEX
8
0
10
104.26699375000001
20
52.324006250000004
30
0
0
VERTEX
8
0
10
104.266990625
20
52.324003125000004
30
0
0
VERTEX
8
0
10
104.266990625
20
52.324000000000005
30
0
0
SEQEND
0
CIRCLE
8
drills_PTH
10
88.16975000000001
20
10.71245
30
0
40
1.6
0
CIRCLE
8
drills_PTH
10
106.14025000000001
20
10.71245
30
0
40
1.6
0
CIRCLE
8
drills_PTH
10
106.12755
20
28.65755
30
0
40
1.6
0
CIRCLE
8
drills_PTH
10
57.054750000000006
20
10.71245
30
0
40
1.6
0
CIRCLE
8
drills_PTH
10
75.02525
20
10.71245
30
0
40
1.6
0
CIRCLE
8
drills_PTH
10
75.01255
20
28.65755
30
0
40
1.6
0
CIRCLE
8
drills_PTH
10
57.054750000000006
20
28.65755
30
0
40
1.6
0
CIRCLE
8
drills_PTH
10
66.04
20
19.685000000000002
30
0
40
1.6
0
CIRCLE
8
drills_PTH
10
97.155
20
19.685000000000002
30
0
40
1.6
0
CIRCLE
8
drills_PTH
10
6.88975
20
10.71245
30
0
40
1.6
0
CIRCLE
8
drills_PTH
10
24.86025
20
10.71245
30
0
40
1.6
0
CIRCLE
8
drills_PTH
10
24.847550000000002
20
28.65755
30
0
40
1.6
0
CIRCLE
8
drills_PTH
10
6.88975
20
28.65755
30
0
40
1.6
0
CIRCLE
8
drills_PTH
10
15.875
20
19.685000000000002
30
0
40
1.6
0
CIRCLE
8
drills_PTH
10
138.33475
20
41.19245
30
0
40
1.6
0
CIRCLE
8
drills_PTH
10
156.30525
20
41.19245
30
0
40
1.6
0
CIRCLE
8
drills_PTH
10
156.29255
20
59.137550000000005
30
0
40
1.6
0
CIRCLE
8
drills_PTH
10
88.16975000000001
20
28.65755
30
0
40
1.6
0
CIRCLE
8
drills_PTH
10
138.33475
20
59.137550000000005
30
0
40
1.6
0
CIRCLE
8
drills_PTH
10
147.32
20
50.165
30
0
40
1.6
0
CIRCLE
8
drills_PTH
10
147.32
20
19.685000000000002
30
0
40
1.6
0
CIRCLE
8
drills_PTH
10
138.33475
20
28.65755
30
0
40
1.6
0
CIRCLE
8
drills_PTH
10
156.29255
20
28.65755
30
0
40
1.6
0
CIRCLE
8
drills_PTH
10
156.30525
20
10.71245
30
0
40
1.6
0
CIRCLE
8
drills_PTH
10
138.33475
20
10.71245
30
0
40
1.6
0
CIRCLE
8
drills_PTH
10
27.305
20
62.230000000000004
30
0
40
0.5588000000000001
0
CIRCLE
8
drills_PTH
10
73.66
20
47.625
30
0
40
0.508
0
CIRCLE
8
drills_PTH
10
40.005
20
24.765
30
0
40
0.508
0
CIRCLE
8
drills_PTH
10
40.005
20
14.605
30
0
40
0.508
0
CIRCLE
8
drills_PTH
10
36.195
20
24.765
30
0
40
0.508
0
CIRCLE
8
drills_PTH
10
36.195
20
14.605
30
0
40
0.508
0
CIRCLE
8
drills_PTH
10
45.085
20
27.305
30
0
40
0.508
0
CIRCLE
8
drills_PTH
10
45.085
20
12.065000000000001
30
0
40
0.508
0
CIRCLE
8
drills_PTH
10
122.555
20
24.130000000000003
30
0
40
0.508
0
CIRCLE
8
drills_PTH
10
122.555
20
13.97
30
0
40
0.508
0
CIRCLE
8
drills_PTH
10
118.745
20
13.97
30
0
40
0.508
0
CIRCLE
8
drills_PTH
10
127.635
20
26.67
30
0
40
0.508
0
CIRCLE
8
drills_PTH
10
127.635
20
11.43
30
0
40
0.508
0
CIRCLE
8
drills_PTH
10
118.745
20
24.130000000000003
30
0
40
0.508
0
CIRCLE
8
drills_PTH
10
88.9
20
47.625
30
0
40
0.508
0
CIRCLE
8
drills_PTH
10
76.2
20
42.545
30
0
40
0.508
0
CIRCLE
8
drills_PTH
10
86.36
20
42.545
30
0
40
0.508
0
CIRCLE
8
drills_PTH
10
76.2
20
38.735
30
0
40
0.508
0
CIRCLE
8
drills_PTH
10
86.36
20
38.735
30
0
40
0.508
0
CIRCLE
8
drills_PTH
10
73.66
20
55.88
30
0
40
0.40640000000000004
0
CIRCLE
8
drills_PTH
10
130.81
20
42.545
30
0
40
0.40640000000000004
0
CIRCLE
8
drills_PTH
10
130.81
20
50.165
30
0
40
0.40640000000000004
0
CIRCLE
8
drills_PTH
10
123.19000000000001
20
42.545
30
0
40
0.40640000000000004
0
CIRCLE
8
drills_PTH
10
123.19000000000001
20
50.165
30
0
40
0.40640000000000004
0
CIRCLE
8
drills_PTH
10
123.19000000000001
20
55.88
30
0
40
0.40640000000000004
0
CIRCLE
8
drills_PTH
10
130.81
20
55.88
30
0
40
0.40640000000000004
0
CIRCLE
8
drills_PTH
10
78.74000000000001
20
55.88
30
0
40
0.40640000000000004
0
CIRCLE
8
drills_PTH
10
64.77
20
55.245000000000005
30
0
40
0.40640000000000004
0
CIRCLE
8
drills_PTH
10
64.77
20
60.325
30
0
40
0.40640000000000004
0
CIRCLE
8
drills_PTH
10
111.125
20
55.88
30
0
40
0.40640000000000004
0
CIRCLE
8
drills_PTH
10
116.20500000000001
20
55.88
30
0
40
0.40640000000000004
0
CIRCLE
8
drills_PTH
10
132.715
20
31.115000000000002
30
0
40
0.40640000000000004
0
CIRCLE
8
drills_PTH
10
127.635
20
31.115000000000002
30
0
40
0.40640000000000004
0
CIRCLE
8
drills_PTH
10
36.83
20
31.115000000000002
30
0
40
0.40640000000000004
0
CIRCLE
8
drills_PTH
10
41.910000000000004
20
31.115000000000002
30
0
40
0.40640000000000004
0
CIRCLE
8
drills_PTH
10
68.58
20
42.545
30
0
40
0.40640000000000004
0
CIRCLE
8
drills_PTH
10
68.58
20
50.165
30
0
40
0.40640000000000004
0
CIRCLE
8
drills_PTH
10
118.745
20
6.3500000000000005
30
0
40
0.40640000000000004
0
CIRCLE
8
drills_PTH
10
126.36500000000001
20
6.3500000000000005
30
0
40
0.40640000000000004
0
CIRCLE
8
drills_PTH
10
36.195
20
6.3500000000000005
30
0
40
0.40640000000000004
0
CIRCLE
8
drills_PTH
10
43.815000000000005
20
6.3500000000000005
30
0
40
0.40640000000000004
0
CIRCLE
8
drills_PTH
10
55.88
20
57.785000000000004
30
0
40
0.40640000000000004
0
CIRCLE
8
drills_PTH
10
55.88
20
60.325
30
0
40
0.40640000000000004
0
CIRCLE
8
drills_PTH
10
78.74000000000001
20
60.325
30
0
40
0.40640000000000004
0
CIRCLE
8
drills_PTH
10
71.12
20
60.325
30
0
40
0.40640000000000004
0
CIRCLE
8
drills_PTH
10
34.29
20
62.230000000000004
30
0
40
0.40640000000000004
0
CIRCLE
8
drills_PTH
10
49.53
20
58.42
30
0
40
0.40640000000000004
0
CIRCLE
8
drills_NPTH
10
111.125
20
48.260000000000005
30
0
40
0.3
0
CIRCLE
8
drills_NPTH
10
98.679
20
62.992000000000004
30
0
40
0.3
0
CIRCLE
8
drills_NPTH
10
110.87100000000001
20
63.246
30
0
40
0.3
0
CIRCLE
8
drills_NPTH
10
98.42500000000001
20
48.260000000000005
30
0
40
0.3
0
ENDSEC
0
EOF